Inxs - Not Enough Time Chords & Tabs

 

Not Enough Time Chords & Tabs

Inxs Chords & Tabs

Version: 1 Type: Bass Tab

Not Enough Time Bass Tab

Verse:

G|---------------|
D|---------------|
A|--0-0-00--0-2--|
E|---------2-----| (Repeat)

Chorus:
[ Tab from: http://www.guitartabs.cc/tabs/i/inxs/not_enough_time_btab.html ]
G|---------------|
D|---------------|
A|---------------|
E|--5-5--3-3--2~-| (Repeat)

Bridge:

G|---------------|
D|---------------|
A|-------5~------|
E|--0~-----------|


----rama_k36@hotmail.com----