Inxs - Never Tear Us Apart Chords & Tabs

 

Never Tear Us Apart Chords & Tabs

Inxs Chords & Tabs

Version: 2 Type: Bass Tab 0 ratings
1 star 2 stars 3 stars 4 stars 5 stars
comments

Never Tear Us Apart Bass Tab

   
INXS - "Never Tear Us Apart" - Bass Tab

Written In Common Time(4/4)
Standard Tuning(EADG)

INTRO: Rest
1ST VERSE: Rest
1ST CHORUS: Rest

PRE-VERSE:
|-------------------|
|*-----------------*|
|*-------------.---*| (x2)
|--5-5-5-5-5-5-5-r--|
   1 & a 2 & a 3 4

VERSE 2:
|---------------|---------------|---------------|
|---------------|---------------|-------------2-|
|---------------|---------------|-5-------5-----|
|-5---0-3-5---3-|-1---0-1---3-5-|-----3-5-------|
  1 2 & a 3 4 &   1 2 & 3 4 & a   1 2 & a 3 4 &

|-------------------------|---------------|---------------|
|-3-3-3-3-3-3-3-3-3-3-3-3-|---------------|---------------|
|-------------------------|-----------3---|-----------0-3-|
|-------------------------|-5---0-3-5---3-|-1---0-1-------|
  1 & a 2 & a 3 & a 4 & a   1 2 & a 3 4 &   1 2 & 3 4 & a 
[ Tab from: http://www.guitartabs.cc/tabs/i/inxs/never_tear_us_apart_btab_ver_2.html ]
|-----------------|-------------------------|
|---------------2-|-3-3-3-3-3-3-3-3-3-3-2---|
|-5---0-3-5---5---|-----------------------5-|
|-----------------|-------------------------|
  1 2 & a 3 4 & a   1 & a 2 & a 3 & a 4 & a

CHORUS:
            (x4)
|---------------|-------------------------|---------|
|*-------------*|-------------------------|---------|
|*-3-----------*|-------------------------|---------|
|------0-1---3--|-3-3-3-3-3-3-3-3-3-3-3-3-|-3-r-r-r-|
   1 2 & 3 4 &    1 & a 2 & a 3 & a 4 & a   1 2 3 4

SOLO:
|---------------|---------------|---------------|
|---------------|---------------|-------------2-|
|---------------|---------------|-5-------5-----|
|-5---0-3-5---3-|-1---0-1---3-5-|-----3-5-------|
  1 2 & a 3 4 &   1 2 & 3 4 & a   1 2 & a 3 4 &

|-------------------------|
|-3-3-3-3-3-3-3-3-3-3-2---|
|-----------------------5-|
|-------------------------|
  1 & a 2 & a 3 & a 4 & a

OUTRO: Repeat CHORUS until fade-out

By: Johari taylor
E-mail: viking@powerup.com.au
Comments