Invein - Everything Goes Wrong Chords & Tabs

 

Everything Goes Wrong Chords & Tabs

Invein Chords & Tabs

Version: 1 Type: Tab 0 ratings
1 star 2 stars 3 stars 4 stars 5 stars
comments

Everything Goes Wrong Tab

Song: Everything Goes Wrong
Band: Invein (an Unheard of Minnesota Garage Band)

[PM]: Palm Mute
/: Slide Down
!: Long Sustain


Intro
/-----------------------
/-----------------------
/-----------------------   X4
/---------7--9--10--9---
/-0!--------------------
/-0!--------------------


Verse
/--------------------------------------
/--------------------------------------
/--------------------------------------  X4
/--------------------------------------
/-10104310-10104310-10104310-1010-0000-
/-10104310-10104310-10104310-1010-0000-
                                  [Pm]


Chorus
/----------------------
/----------------------
/----------------------   X4
/-12/------------------
/-12/-00-0-00-000-1030-
/-12/-00-0-00-000-1030-

[ Tab from: http://www.guitartabs.cc/tabs/i/invein/everything_goes_wrong_tab.html ]
Verse
/--------------------------------------
/--------------------------------------
/--------------------------------------  X4
/--------------------------------------
/-10104310-10104310-10104310-1010-0000-
/-10104310-10104310-10104310-1010-0000-
                                  [Pm]


Chorus
/----------------------
/----------------------
/----------------------   X4
/-12/------------------
/-12/-00-0-00-000-1030-
/-12/-00-0-00-000-1030-


Bridge
/-
/-
/-
/--------------------12/--------------------7/--------------------12/-------------------7/-
/-1-1-1--11-1-1-1-00-12/-1-1-1--11-1-1-1-00-7/-1-1-1--11-1-1-1-00-12/1-1-1--11-1-1-1-00-7/-
/-1-1-1--11-1-1-1-00-12/-1-1-1--11-1-1-1-00-7/-1-1-1--11-1-1-1-00-12/1-1-1--11-1-1-1-00-7/-

/-
/-
/-
/--------------12/--------------7/--------------12/--------------7/-
/-1--0-1--1-00-12/-1--0-1--1-00-7/-1--0-1--1-00-12/-1--0-1--1-00-7/-
/-1--0-1--1-00-12/-1--0-1--1-00-7/-1--0-1--1-00-12/-1--0-1--1-00-7/-

Pause

Chorus
/----------------------
/----------------------
/----------------------   X8
/-12/------------------
/-12/-00-0-00-000-1030-
/-12/-00-0-00-000-1030-


End
Comments