Intwine - Happy Chords & Tabs

 

Happy Chords & Tabs

Intwine Chords & Tabs

Version: 2 Type: Tab 0 ratings
1 star 2 stars 3 stars 4 stars 5 stars
comments

Happy Tab

The very difficult solo of Intwine's Happy.  
Brought to you by the king himself, Muhab Mahmoud.  Enjoy it


E--5--7--8--7--5--3-5----|--1\3--1--1--0----------------------|
B-------------------------|----------------2p3--3--1--0--1--0---|
G-------------------------|-------------------------------------|
D-------------------------|-------------------------------------|
A-------------------------|-------------------------------------|
E-------------------------|-------------------------------------|


E--------3--3--3--1--0---|--0p1-0----------------------------|
B-------------------------|----------1\3--1--0--10p13---------|
G0p2--2------------------|-------------------------------------|
D-------------------------|-------------------------------------|
A-------------------------|-------------------------------------|
E-------------------------|-------------------------------------|

[ Tab from: http://www.guitartabs.cc/tabs/i/intwine/happy_tab_ver_2.html ]
E0--1-1\3--1-01-1\3-3\5-|--5-5-5-5---8-10-10\12----------|
B----------------------------|-------------------------------------|
G----------------------------|-------------------------------------|
D----------------------------|-------------------------------------|
A----------------------------|-------------------------------------|
E----------------------------|-------------------------------------|

E-15-12--14-10--12--8-----|--10-7-7p8p7--5--7-3\5-5--------|
B----------------------------|-------------------------------------|
G----------------------------|-------------------------------------|
D----------------------------|-------------------------------------|
A----------------------------|-------------------------------------|
E----------------------------|-------------------------------------|

E-3\5--5--7--10--9-9-9--9---|-----------------------------------|
B----------------------------|-------------------------------------|
G----------------------------|-------------------------------------|
D----------------------------|-------------------------------------|
A----------------------------|-------------------------------------|
E----------------------------|-------------------------------------|
Comments