Intwine - Happy Chords & Tabs

 

Happy Chords & Tabs

Intwine Chords & Tabs

Version: 1 Type: Bass Tab 0 ratings
1 star 2 stars 3 stars 4 stars 5 stars
comments

Happy Bass Tab

Intwine - Happy

....feels like im dying now i know the truth

I hope you dont feel...
G---|---------|---------|---------|---------|
D---|---------|---------|---------|---------|
A---|---------|---------|---------|---------|
E-0/|-5-----5-|-3-------|-5-----5-|-3-------|

G|---------|------------|-----------------|----------------|
D|---------|------------|-----------------|--h7-5----------|
A|---------|------------|-----------------|-------7--------|
E|-1-----1-|-0------3-4-|-5-5-5-5-5-5-5-5-|-5-------5--5--5|

dont feel..
G|-------------|-------------|---------------|---------------|
D|-------------|-------------|---------------|---------------|
A|-------------|-------------|---------------|---------------|
E|-----------3-|---3-3h5-3---|-0---0-0---3-0-|-1---1-3-1-3---|

G|-------------|--------------|-----------------|---------------------|
D|-------------|--------------|-------------7-7-|-7-5h7-7-7-5h7-5-----|
A|-------------|--------------|-------7-7-7-----|-----------------7-7-|
E|-1--1-1--3-1-|-0--0-0-0-3-4-|-5-5-5-----------|---------------------|
[ Tab from: http://www.guitartabs.cc/tabs/i/intwine/happy_btab.html ]
G|---------------|---------------|---------------|---------------|
D|---------------|---------------|---------------|-------7-----5-|
A|---------------|---------------|---------------|-5---5---5-7---|
E|-5---5-5---3-5-|-7---7-7---5-7-|-8---8-8---7-8-|---------------|

G|---------------|--------------|-----------------|-------------------|
D|-----------5---|----------5-6-|-7-7-7-----------|---5h7-5-----------|
A|-8---8-8-----8-|-7--7-7-7-----|-------7-7-7-----|---------7-----7---|
E|---------------|--------------|-------------5-5-|-5---------5-5-----|

G|---------------|---------------|---------------|---------------|
D|---------------|---------5-----|-----7-7-5-----|-------------2-|
A|-------7-------|-------5---5---|-----------7---|-------0---3---|
E|-5---8-----8-5-|-3---7-------7-|-5-------------|-3---3---------|

G|--------5----|--------4-5-5-|-6-6-6-7-7-7-9-9-|-9--------------|
D|-3--3/7---7\-|-2-2/6-------|-----------------|---7-7-7-7---5--|
A|-------------|--------------|-----------------|-----------7----|
E|-------------|--------------|-----------------|----------------|

G|--------------|-------------|---------------|---------------|
D|--------------|-----5-5-3---|---------7-----|---------------|
A|-------7------|-----------5-|-------7---7---|-------0-------|
E|-5---8-----8--|-3-----------|-5---8-------8-|-3---3-----3-2-|

G|------------|---------------|
D|------------|---------------|
A|------------|---------------|
E|-1---1-1----|-0==========---|
Comments