Interpol - Untitled Chords & Tabs

 

Untitled Chords & Tabs

Interpol Chords & Tabs

Version: 3 Type: Tab 0 ratings
1 star 2 stars 3 stars 4 stars 5 stars
comments

Untitled Tab

   
Interpol
Untitled

Intro Guitar 2 w/ delay
E------------------|-----------------|----------------------------------|              
B--4-4-4-4-4-4-4-4-|-4-4-4-4-4-4-4-4-|-2-2-2-2-2-2-2-2-2-2-2-2-2-2-4-4-4|
G--5-5-5-5-5-5-5-5-|-3-3-3-3-3-3-3-3-|-3-3-3-3-3-3-3-3-3-3-3-3-3-3-3-3-3|
D------------------|-----------------|----------------------------------|
A------------------|-----------------|----------------------------------|
E------------------|-----------------|----------------------------------|
[ Tab from: http://www.guitartabs.cc/tabs/i/interpol/untitled_tab_ver_3.html ]
Guitar 1 After Lyrics
E---------------|               
B---------------|               
G---------------|Repeat measure 
D-15-15-15-15-15|  about 6x     
A---------------|    then...  
E---------------|               

Tremolo picking until end of song
E-------|--------------------|
B-------|--------------------|
G-15-//-|-15-///14-///-15-//-| 
D-------|--------------------|
A-------|--------------------|
E-------|--------------------| 

Daniel (Guitar 2) plays this about the time when
Paul(Guitar 1) starts tremolo picking
E-------------|-------------|-------------------------|
B-4--4--4--4--|-3--3--3--3--|-2--2--2--2--2--2--2--2--|
G--5--5--5--5-|--4--4--4--4-|--3--3--3--3--3--3--3--3-|
D-------------|-------------|-------------------------|
A-------------|-------------|-------------------------|
E-------------|-------------|-------------------------|
Comments