Interpol - Untitled Chords & Tabs

 

Untitled Chords & Tabs

Interpol Chords & Tabs

Version: 2 Type: Tab 0 ratings
1 star 2 stars 3 stars 4 stars 5 stars
comments

Untitled Tab

Song: Untitled
Artist: Interpol
Album: Turn on the Bright lights (2002)
Tabber: RB

OK, this is a simple song, the guitars are all heavily delayed (maybe
several delay pedals at once, hard to tell). The piece basically just
repeats itself over and over, so i'm not gonna bother tabbing it all
out, any musician worth their salt should be able to work out timings
with the CD.

\ = slide down, / = slide up , h = hammeron.

Lyrics on www.interpolny.com, if yer bothered.


Guitar 1 (Repeat this all the way through)
Some notes are accented, again, listen to the CD to find out which. 
E||--------------------------|--------------------------|
B||--4--4--4--4--4--4--4--4--|--4--4--4--4--4--4--4--4--|
G||--5--5--5--5--5--5--5--3--|--3--3--3--3--3--3--3--3--|
D||--------------------------|--------------------------|
A||--------------------------|--------------------------|
E||--------------------------|--------------------------|

[ Tab from: http://www.guitartabs.cc/tabs/i/interpol/untitled_tab_ver_2.html ]
                                                       
--------------------------|--------------------------||
--2--2--2--2--2--2--2--2--|--2--2--2--2--2--4--4--4--||
--3--3--3--3--3--3--3--3--|--3--3--3--3--3--3--3--3--||
--------------------------|--------------------------||
--------------------------|--------------------------||
--------------------------|--------------------------||

Bass (come in after 4 playing of guitar 1's riff and play all the way through)
                                                          through)
G||---------------------------|--------------------------|
D||--5----5/---10--10--10--0h-|--1--1--1--1--1--1--1--1/-|
A||---------------------------|--------------------------|
E||---------------------------|--------------------------|


                                                 
----------------------|------------------------||
--8------8--8------8--|--8------8--8--8--8--6--||
----------------------|------------------------||
----------------------|------------------------||

Fill ins:

E||---------
B||--8--\--- every so often.
G||--8--\---
D||---------
A||---------
E||---------

Guitar 2 (over Guitar 1)

E||-8--8--8--8--
B||-6--6--6--6-- (or something like this) after lyrics
G||-------------
D||-------------
A||-------------
E||-------------

Long note:

E||---------
B||-11------ bend up to this, loads of delay etc. to hold it.
G||--------- bend down to the A occasionally, then slide down at end
D||---------
A||---------
E||---------

Thanks.

RB
Comments