Interpol - Untitled Chords & Tabs

 

Untitled Chords & Tabs

Interpol Chords & Tabs

Version: 1 Type: Tab 0 ratings
1 star 2 stars 3 stars 4 stars 5 stars
comments

Untitled Tab

   
INTERPOL
--------
UNTITLED

               !! CAPO ON 1st FRET !!


NOTE : Partition for 2 guitars.


RIFF 1:

       
    Bm                          D
e:-----------------------------------------------------------------
B:--3---3---3---3---3---3---3---3---3---3---3---3---3---3---3---3--
G:--4---4---4---4---4---4---4---2---2---2---2---2---2---2---2---2--
D:-----------------------------------------------------------------
A:-----------------------------------------------------------------
E:-----------------------------------------------------------------

       
    Am
e:-----------------------------------------------------------------
B:--1---1---1---1---1---1---1---1---1---1---1---1---1---3---3---3--
G:--2---2---2---2---2---2---2---2---2---2---2---2---2---2---2---2--
D:-----------------------------------------------------------------
A:-----------------------------------------------------------------
E:-----------------------------------------------------------------



RIFF 2:

bass line with a guitar tuned in D (with capo on 3rd):

                                
E:--2---2---2---/---9---9---9---0---0---0---0---0---0---0---0---0--


E:0/7---7---6---7---7---7---6---7---7---7---6---7---7---7---6---7--




RIFF 3  (2:05) :
[ Tab from: http://www.guitartabs.cc/tabs/i/interpol/untitled_tab.html ]
       
    Bm/E                            Dsus2
e:--0---0---0---0---0---0---0---0---0---0---0---0---0---0---0---0--
B:--5---5---5---5---5---5---5---5---5---5---5---5---5---5---5---5--
G:--4---4---4---4---4---4---4---4---4---4---4---4---4---4---4---4--
D:-----------------------------------------------------------------

    
    Am                     
e:--0---0---0---0---0---0---0---0---0---0---0---0---0---0---0---0--
B:--5---5---5---5---5---5---5---5---5---5---5---5---5---5---5---5--
G:--5---5---5---5---5---5---5---5---5---5---5---5---5---5---5---5--
D:-----------------------------------------------------------------




INTRO : RIFF 1  4x   then,  (RIFF 1 + RIFF 2)   4x


VERSE :
  Bm          D                     Am
Surprise, sometimes, we'll come around
  Bm          D                    Am
Surprise sometimes, we'll come around
          Bm            D                   Am
I will surprise you sometimes, I'll come around
              Bm            D                   Am
Oh, I will surprise you sometimes, I'll come around  When you're down


(RIFF 2 + RIFF 3)    4x
with Bm/E, Dsus2 and Am


END on RIFF 1 played like that : 

B:---------3-------3-----------------------3--- etc...   4x
G:-4---4-------4-------4---4---2---x---2-------
D:---------------------------------------------



CHORDS:

Bm    x24432
D     xx0232
Am    x02210
Bm/E  x24430
Dsus2 xx0230 

Any corrections : thibiat@yahoo.fr
Comments