Interpol - Untitled Chords & Tabs

 

Untitled Chords & Tabs

Interpol Chords & Tabs

Version: 1 Type: Bass Tab 0 ratings
1 star 2 stars 3 stars 4 stars 5 stars
comments

Untitled Bass Tab

Interpol
Untitled
Tune E-string down 1/2 step 

G |---------------------------------------------|
D |---------------------------------------------|
A |---------------------------------------------|
Eb|--4-4-4/9-9-9-0-0-0-0-0-7-7-7-7-7-7-7-5-5-5--|
[ Tab from: http://www.guitartabs.cc/tabs/i/interpol/untitled_btab.html ]
G |---------------------------------------------|
D |---------------------------------------------|
A |---------------------------------------------|
Eb|--4-4-4/9-9-9-0-0-0-0-0-7-7-7-7-7-7-7-5-5-5--|

keep repeating this until the song is 50sec before 
the ending then it's one time...

G |------------------|
D |------------------|
A |------------------|
Eb|--4-4-4/9-9-9-0*--|

then it's two times

G |----------|
D |----------|
A |----------|
Eb|--9-9-0*--|
Comments