Interpol - The New Chords & Tabs

 

The New Chords & Tabs

Interpol Chords & Tabs

Version: 2 Type: Tab 0 ratings
1 star 2 stars 3 stars 4 stars 5 stars
comments

The New Tab

e|-------------------------------------------------------------|
B|-------------------------------------------------------------|
G|-------------------------------------------------------------|
D|-----2---3-2-------0---2---3-2-----2---3-2-------0---2---3-2-|2X
A|-3-3---3-----3-2-2---2---2-----0-0---0-----0-------2---2-----|
E|---------------------------------------------1-1-------------|
[ Tab from: http://www.guitartabs.cc/tabs/i/interpol/the_new_tab_ver_2.html ]
e|-------------------------------------------------------------------|
B|-------------------------------------------------------------------|
G|-------------------------------------------------------------------|
D|-----2---3-2-------0---2---3-2-----2---3-2-------0---2---3-2-5-3-2-|
A|-3-3---3-----3-2-2---2---2-----0-0---0-----0-------2---2-----------|
E|---------------------------------------------1-1-------------------|

e|--------------------------------------------------------|
B|--------------------------------------------------------|
G|--------------------------------------------------------|
D|---3-2-------0---2---3-2-----2---3-2---------2--2--2--2-|
A|-3-----3-2-2---2---2-----0-0---0-----0-----0--0--0--0---|
E|---------------------------------------1-1--------------|
Comments