Interpol - The New Chords & Tabs

 

The New Chords & Tabs

Interpol Chords & Tabs

Version: 1 Type: Tab 0 ratings
1 star 2 stars 3 stars 4 stars 5 stars
comments

The New Tab

   
The New
by Interpol

tabbed by Sinh: xtran@ucla.edu

here are the beginning chords.  have fun.
and please do email me with responses if any.


Play this twice:

   C         	     Em		       Am		 F
   + . + . + . + . | + . + . + . + . | + . + . + . + . | + . + . + . + . |
 |-----------------|-----------------|-----------------|-----------------|
 |-----------------|-----------------|-----------------|-----------------|
 |-----------------|-----------------|-----------------|-----------------| 
 |-----2---3-2-----|-----0---2---3-2-|-----2---3-2-----|-----0---2---3-2-|
 |-3-3---3-------3-|-2-2---2---2-----|-0-0---0-------0-|-----------------|
 |-----------------|-----------------|-----------------|-1-1---1---1-----|


Then this:
[ Tab from: http://www.guitartabs.cc/tabs/i/interpol/the_new_tab.html ]
   + . + . + . + . | + . + . + . + . | + . + . + . + . | + . + . + . + . |
 |-----------------|-----------------|-----------------|-----------------|
 |-----------------|-----------------|-----------------|-----------------|
 |-----------------|-----------------|-----------------|-----------------| 
 |-----2---3-2-----|-----0---2---3-2-|-----2---3-2-----|-----0---2---3-2-|
 |-3-3---3-------3-|-2-2---2---2-----|-0-0---0-------0-|-----------------|
 |-----------------|-----------------|-----------------|-1-1---1---1-----|

   + . + . + . + . | + . + . + . + . | + . + . + . + . | + . + . + . + . |
 |-----------------|-----------------|-----------------|-----------------|
 |-----------------|-----------------|-----------------|-----------------|
 |-0---------------|-----------------|-----------------|-----------------| 
 |---3-2---3-2-----|-----0---2---3-2-|-----2---3-2-----|-----0---0---0---|
 |-------3-------3-|-2-2---2---2-----|-0-0---0-------0-|---------------2-|
 |-----------------|-----------------|-----------------|-1-1---1---1-----|


For the verses, I often just strum the chords [C, Em, Am, F].


C              
I wish I could live free
  Em
I hope it's not beyond me 
Am                     F
settling down it takes time...


repeat for the rest of the verses.


Chords:
C 	(032010) 
Em	(022000)  or (020010) you can play these instead also, but I forget what its called.
Am	(002210)  
F	(133211)  or (100210)




Comments