Interpol - The New Chords & Tabs

 

The New Chords & Tabs

Interpol Chords & Tabs

Version: 1 Type: Bass Tab 0 ratings
1 star 2 stars 3 stars 4 stars 5 stars
comments

The New Bass Tab

   
Interpol
The New

Intro 
G|-------9----10-9---------7---9---10-9------9---10-9-------7---9---10-9--| 
D|-10-10---10-------10-9-9---9---9------7--7---7------7-0-0---0---0-------| x3 
A|------------------------------------------------------------------------| 
D|------------------------------------------------------------------------| 

G|-12-10--9----10-9---------7---9---10-9------9---10-9-----7---7---7---7--| 
D|----------10-------10-9-9---9---9-------7-7---7------7-0---0------------| x2
A|------------------------------------------------------------------------| 
D|---------------------------------------------------------------9---9----| 

Verse A
G|-----9-------9-------9-------9--|-----7-------7-------7-------7--|
D|-10------10------10------10-----|-9-------9-------9-------9------|
A|--------------------------------|--------------------------------|
D|--------------------------------|--------------------------------|

G|-----10------10------9-------9--|-----7-------7-------7-------7--|
D|-7-------7-------7-------7------|-0-------0-------9-------9------|
A|--------------------------------|--------------------------------|
D|--------------------------------|--------------------------------|

Bridge and Chorus A
G|---------9---------------9------|---------7---------------7------|
D|-10--10------10--10--10------10-|-9---9-------9---9---9-------9--|
A|--------------------------------|--------------------------------|
D|--------------------------------|--------------------------------|

G|---------10--------------9------|---------10----------7-------7--|
D|-7---7-------7---7---7-------7--|-0---12------12--9-------9------|
A|--------------------------------|--------------------------------|
D|--------------------------------|--------------------------------|

Chorus B
G|-----9-------10------10--9------|-7-------9-9-9---10-------------|
D|(10)-----10--------------------9|-----9--------------------------|
A|--------------------------------|--------------------------------|
D|--------------------------------|--------------------------------|

G|-10------10------9-------9------|---------10----------7-------7--|
D|-----7-------7-------7-------7--|-0---12------12--9-------9------|
A|--------------------------------|--------------------------------|
D|--------------------------------|--------------------------------|

Verse B
G|--------------------------------|--------------------------------|
D|-10--10--10--10--10--10--10--10-|-9---9---9---9---9---9---9---9--|
A|--------------------------------|--------------------------------|
D|--------------------------------|--------------------------------|

G|--------------------------------|---------7----------------------|
D|-7---7---7---7---7---7---7---7--|---------------------7---7---9--|
A|--------------------------------|-----5-------5------------------|
D|--------------------------------|--------------------------------|

Break
G|--------------------------------|--------------------------------|
D|-9(9)10-------------------------|-10*-9--------------------------| 
A|--------------------------------|--------------------------------|
D|--------------------------------|--------------------------------|
* = not first time

G|--------------------------------|--------------------------------|
D|-9---7--------------------------|--------------------------------|
A|--------------------------------|-----5--------------------------|
D|--------------------------------|--------------------------------|

Break End
G|--------------------------------|--------------------------------|
D|-10--9--------------------------|--------------------------------|
A|--------------------------------|--------------------------------|
D|--------------------------------|--------------------------------|

G|--------------------------------|--------------------------------|
D|-9---9--------------------------|--------------------------------|
A|--------------------------------|--------------------------------|
D|--------------------------------|--------------------------------|

G|--------------------------------|-----------------11-------------|
D|-9---9--------------------------|-9------------------------------|
A|-----------------9--------------|--------------------------------|
D|--------------------------------|--------------------------------| 2x

"Weird" Part A
G|--------------------------------|--------------------------------|
D|--------------------------------|--------------------------------|
A|-5---5---5---5---5---5---4---4--|-3---2---2---2---2-/-4---4---4-/|
D|--------------------------------|--------------------------------|

"Weird" Part B
G|--------------------------------|--------------------------------|
D|--------------------------------|--------------------------------|
A|-5---5---5---7---7---7---5---5--|-5--2---2---2------9-9-9-9------|
D|--------------------------------|------------------------------7-|

"Weird" Part C
G|--------------------------------|---------------------4-------6--|
D|--------------------------------|--------------------------------|
A|-5---5---5---5---5---5---4---4--|-3---2---2---2---2-------4------|
D|--------------------------------|--------------------------------|

"Weird" Part End
G|--------------------------------|--------------------------------|
D|--------------------------------|-------------------------2---3--|
A|-5-------7-------5-------2------|--------------------------------|
D|--------------------------------|-----------------0---2----------|

Instrumental A
G|--------------------------------|--------------------------------|
D|---------4---4---0---0----------|--------------------------------|
A|-----------------------------0--|-2---2-------0---2---2--5---5-5-|
D|-4---4--------------------------|--------------------------------|

G|--------------------------------|---------------------4----------|
D|---------4---4---0---0----------|--------------------------------|
A|-5---------------------------0--|-2---2-------0---2--------------|
D|-----4--------------------------|-----------------------------2--|

G|--------------------------------|--------------------------------|
D|---------4---4---0---0----------|--------------------------------|
A|-----------------------------0--|-2---2-------0---2---2--5---5-5|
D|-4---4--------------------------|--------------------------------|
[ Tab from: http://www.guitartabs.cc/tabs/i/interpol/the_new_btab.html ]
G|--------------------------------|-----------------------------12-|
D|---------4---4---0---0----------|--------------------------------|
A|-5---------------------------0--|-2------------------------------|
D|-----4--------------------------|--------------------------------|

Solo
G|-14------14--141414--12--12--14-|-----12--11------12--121211--12-|
D|--------------------------------|--------------------------------|
A|--------------------------------|--------------------------------|
D|--------------------------------|--------------------------------|

G|-14------14--141414--12------11-|-----12------11------12------11-|
D|--------------------------------|--------------------------------|
A|--------------------------------|--------------------------------|
D|--------------------------------|--------------------------------|

G|-----14--14--141414--12--12--14-|-----12--11------12--121211--12-|
D|--------------------------------|--------------------------------|
A|--------------------------------|--------------------------------|
D|--------------------------------|--------------------------------|

G|-14--12--11------11------11-16--|-----16--16--1616---------------|
D|--------------------------------|--------------------------------|
A|--------------------------------|--------------------------------|
D|--------------------------------|---------------------0---0---0-1|

Instrumental B
G|--------------------------------|-----------------------------7-7|
D|---------4---4-4-0---0-0--------|--------------------------------|
A|-----------------------------0--|-2---2-2-----0-0-2---2-25-------|
D|-4---4-4------------------------|--------------------------------|

G|--------------------------------|--------------------------------|
D|---------4---4-4-0---0-0--------|--------------------------------|
A|-----------------------------0--|-2---2-2-----0-0-2---2-2-2---2-2|
D|-4---4-4------------------------|--------------------------------|

G|--------------------------------|-----------------------------7-7|
D|---------4---4-4-0---0-0--------|--------------------------------|
A|-----------------------------0--|-2---2-2-----0-0-2---2-25-------|
D|-4---4-4------------------------|--------------------------------|

Instrumental B - Ending A
G|--------------------------------|--------------------------------|
D|---------4---4-4-0---0-0--------|---------------------2---4------|
A|-----------------------------0--|-2------------------------------|
D|-2---2-2------------------------|-------------4-4-4--------------|

Instrumental B - Ending B
G|--------------------------------|--------------------------------|
D|---------4---4-4-0---0-0--------|--------------------------------|
A|-----------------------------0--|-2-----------0---2--------------|
D|-2---2-2------------------------|---------------------0---2---3--|

Silent Part
G|--------------------------------|--------------------------------|
D|---------4---4---0---0----------|--------------------------------|
A|-----------------------------0--|-2---2-------0---2---2--5---5---|
D|-4---4--------------------------|--------------------------------|

G|--------------------------------|--------------------------------|
D|---------4---4---0---0----------|--------------------------------|
A|(5)--------------------------0--|-2---2-------0---2---2*---------| 
D|-----4--------------------------|--------------------------------|
* = skip the 2nd time

Instrumental C
G|--------------------------------|--------------------------------|
D|---------4---4---0---0----------|--------------------------------|
A|-----------------------------0--|-2---2-------0---2---2--5---5-5-|
D|-4---4--------------------------|--------------------------------|

G|--------------------------------|--------------------------------|
D|---------4---4---0---0----------|--------------------------------|
A|-5---------------------------0--|-2---2-------0---2---2----------|
D|-----4--------------------------|-----------------------------0--|

G|--------------------------------|--------------------------------|
D|---------4---4---0---0----------|--------------------------------|
A|-----------------------------0--|-2---2-------0---2---2--5---5-5-|
D|-4---4--------------------------|--------------------------------|

G|--------------------------------|--------------------------------|
D|---------4---4---0---0----------|--------------------------------|
A|-5---------------------------0--|-9-9-9-9-9-9-9-9-9-9-9-9-9-9-9-9|
D|-----4--------------------------|--------------------------------|

Outro
G|--------------------------------|--------------------------------|
D|--------------------------------|--------------------------------|
A|----------------5---5---5---5--|-2---2---2---2---2---2--5---5----|
D|-4---4---4---4------------------|--------------------------------|

G|--------------------------------|--------------------------------|
D|--------------------------------|--------------------------------|
A|-5--------------5---5---5---5--|-2---2---2---2---2---2---2---2--|
D|-----4---4---4------------------|--------------------------------|

G|--------------------------------|--------------------------------|
D|--------------------------------|--------------------------------|
A|----------------5---5---5---5--|-2---2---2---2---2---2--5---5----|
D|-4---4---4---4------------------|--------------------------------|

G|--------------------------------|-------------4-------4-------4--|
D|--------------------------------|--------------------------------|
A|-5--------------5---5---5---5--|-2---2---2-------2-------2-------|
D|-----4---4---4------------------|--------------------------------|

G|--------------------------------|--------------------------------|
D|--------------------------------|--------------------------------|
A|-2------------------------------|--------------------------------|
D|--------------------------------|--------------------------------|


[00:06] Intro 3x
[00:31] Intro End
[00:40] Verse A 4x
[01:05] Bridge 1x
[01:14] Chorus A
[01:31] Chorus B
[01:48] Verse B 4x
[02:22] Break 4x (Every time you play it again, leave a bar out)
[02:57] Break End
[03:11] "Weird" Part A,B (Some triplets)
[03:22] "Weird" Part C,B (Some triplets)
[03:30] "Weird" Part C,B (Some triplets)
[03:38] "Weird" Part A,End
[03:46] Instrumental A
[04:03] Solo
[04:20] Instrumental B + Ending A
[04:37] Instrumental B + Ending B
[04:53] Silent Part 2x
[05:10] Instrumental C
[05:27] Outro

this guy is crazy mannnnnn
Comments