Interpol - Take You On A Cruise Chords & Tabs

 

Take You On A Cruise Chords & Tabs

Interpol Chords & Tabs

Version: 1 Type: Bass Tab

Take You On A Cruise Bass Tab

tabbed by Leigh Mitchell
Interpol-take you on a cruise (from ANTICS)
DADG tuning

0:18
G|--------------------9------9--------------7---7-------|
D|--------------0-7------------9------------------------|
A|-0-2----------------------------------5---------------|
D|------------------------------------------------------|

0:26 play this 4 times.
|-------------------------------------------------------------------|
|--------------------444--------------222-0--------2-555--0-2-0-----|
|-2--2--22--0----0--------0-2-0---0----------2-0--------------------|
|-------------------------------------------------------------------|

REST for about 4-5 bars I think?

1:22 ish
|----7-------------|
|------------------|
|--------5-7-------|
|------------------|
play 3 times.
|------------------------------------------------------------|
|------------------------------------------------------------|
|--------------------------------22--2--222--00--55----------|
|-55555555-22222222---------------------------------0-2------|
 fourth time
|---------------------------------------------------------------|
|---------------------------------------------------------------|
|--------------------------------55555555-66666666-7-let ring---|
|-55555555-22222222---------------------------------------------|

|---9---------11-------9----9----------7--7-------|
|-7------0-9------0-7--------9--------------------|
|--------------------------------------5----------|
|-------------------------------------------------|

2:08 play four times.
|--------------------------------------------|
|--------------------------------------------|
|-22222222-00000000-77777777-55555555--------|
|--------------------------------------------|

[ Tab from: http://www.guitartabs.cc/tabs/i/interpol/take_you_on_a_cruise_btab.html ]
REST until.
3:04
|--7-----------|
|--------------|
|-----5-7------|
|--------------|


Play three times
|-------------------------------------------------------------|
|-------------------------------------------------------------|
|--------------------------------22--2--222--00--55-----------|
|-55555555-22222222---------------------------------0-2-------|

fourth time.
|---------------------------------------------------------------------|
|---------------------------------------------------------------------|
|--------------------------------5-let ring-6-let ring----------------|
|-55555555-22222222-------------------------------2-let ring----------|

REST

3:54
|---------------------------------------------------------|
|--------------444----------222--2-2-0---555-5--2-0-------|
|-2--2--2-0--------2--2-0---------------------------------|
|---------------------------------------------------------|

|-----------------------------------------------------------------|
|--------------444----------222--2-2-0---555----------------------|
|-2--2--2-0--------2--2-0-----------------------------------------|
|-----------------------------------------------------------------|

little rest

4:10 play three times
|-------------------------------------------------------------------------|
|-------------------------------------------------------------------------|
|---------------------------------00-1-22222222-020-55555555--------------|
|-5555555-44-22222222----------------------------------------0--2-4-5-----|

fourth time/ END.
|----------------------------------------------------------------|
|----------------------------------------------------------------|
|-------------------------0-1-2-55555555-66666666--7-let ring----|
|-55555555-44-22222222-------------------------------------------|