Interpol - Stella Was A Driver And She Was Always Down Chords & Tabs

 

Stella Was A Driver And She Was Always Down Chords & Tabs

Interpol Chords & Tabs

Version: 1 Type: Tab 0 ratings
1 star 2 stars 3 stars 4 stars 5 stars
comments

Stella Was A Driver And She Was Always Down Tab

RIFF 1
e|----------------------------|
B|----5-----5-----5-------5---|
G|--5---5-5---5-5---5-4-4---4-|
D|----------------------------|
A|----------------------------|
E|----------------------------|
There's another riff that's almost the same as riff one, except the 5 on the B
string is played as a 5 on the e string
RIFF 2
e|--5-5-5-5-5-5-5-5--5-5-5-5--5-5-5-5-|
B|--5-5-5-5-5-5-5-5--6-6-6-6--5-5-5-5-|
G|--5-5-5-5-5-5-5-5--5-5-5-5--5-5-5-5-|
D|--3-3-3-3-3-3-3-3--7-7-7-7--5-5-5-5-|
A|------------------------------------|
E|------------------------------------|
RIFF 3
e|----------------------------------------------------|
B|----------------------------------------------------|
G|--7-7-7-7-7-7-7-7--3-3-3-3-3-3-3-3--5-5-5-5-5-5-5-5-|
D|--7-7-7-7-7-7-7-7--3-3-3-3-3-3-3-3--3-3-3-3-3-3-3-3-|
A|--5-5-5-5-5-5-5-5--1-1-1-1-1-1-1-1------------------|
E|----------------------------------------------------|
RIFF 4
e|--5-5-5-5--5-5-5-5--5-5-5-5-5-|
B|--6-6-6-6--5-5-5-5--5-5-5-5-5-|
G|--5-5-5-5--5-5-5-5--5-5-5-5-5-|
D|--7-7-7-7--5-5-5-5--3-3-3-3-3-|
A|------------------------------|
E|------------------------------|
RIFF 5
e|------------------------------|
B|----------5-5-5-5-3-3-3-3-----|
G|--5-7-5-7-----------------5-7-|
D|------------------------------|
A|------------------------------|
E|------------------------------|
There's another riff that's a lot like riff 5 except the 7 on the G string is played
as a 12 on the e string.
The song finishes off on this chord:
e|--5
B|--5
G|--5
D|--3
A|---
E|---
[ Tab from: http://www.guitartabs.cc/tabs/i/interpol/stella_was_a_driver_and_she_was_always_down_tab.html ]
Comments