Interpol - Stella Was A Diver And She Was Always Down Chords & Tabs

 

Stella Was A Diver And She Was Always Down Chords & Tabs

Interpol Chords & Tabs

Version: 1 Type: Bass Tab 0 ratings
1 star 2 stars 3 stars 4 stars 5 stars
comments

Stella Was A Diver And She Was Always Down Bass Tab

   
Interpol
Stella Was A Diver And She Was Always Down

Intro
G|--------------------------------|--------------------------------|
D|--------------------------------|--------------------------------|
A|--------------------------------|--------------------7-7-7---7-7-|
D|--------------------------------|--------------------------------|

Verse A
G|--------------------------------|--------------------------------|
D|--------------------------------|--------------------------------|
A|-7---8---8---8-8-8---7---7---7-7|-7---5---5---5-5-5---0---0---0--|
D|--------------------------------|--------------------------------|

G|--------------------------------|--------------------------------||
D|--------------------------------|--------------------------------||
A|-0---8---8---8-8-8---7---7---7-7|-7---5---5---5-5-5---0---0---0--||
D|--------------------------------|--------------------------------|| 2x

G|--------------------------------|--------------------------------|
D|--------------------------------|-----------------7---7-7-7---7-7|
A|-0---8---8---8-8-8---7---7---7-7|-7---5---5---5-5----------------|
D|--------------------------------|--------------------------------|

G|--------------------------------|--------------------------------|
D|-7------------------------------|--------------------------------|
A|-----8---8---8-8-8---7---7---7-7|-7---5---5---5-5-5---0---0---0--|
D|--------------------------------|--------------------------------|

G|--------------------------------|--------------------------------||
D|--------------------------------|--------------------------------||
A|-0---8---8---8-8-8---7---7---7-7|-7---5---5---5-5-5---0---0---0--||
D|--------------------------------|--------------------------------|| 2x

G|-------------------------7------|---------7----------------------|
D|--------------------------------|-----------------7---7-7-7---7-7|
A|-0---8---8---8-8-8---7-------7-7|-7---5-------5-5----------------|
D|--------------------------------|--------------------------------|

Break
G|-----------------10-------------|--------------------------------||
D|-------------10--------------7-7|--------------------------------||
A|-8---8--------------------------|-5---5---5---5-5-0---0---0---0-0||
D|---------10---------------------|--------------------------------|| 3x

G|--------------------------------|--------------------------------|
D|--------------------------------|--------------------------------|
A|-----7-7-7-7-8-8-------8-8------|-8-8-7-7-7-7-8-8-------8-8------|
D|--------------------------------|--------------------------------|

G|--------------------------------|--------------------------------|
D|--------------------------------|--------------------------------|
A|-----3-3-3-3-3-3----------------|--------------------------------|
D|-----------------------3-3------|-3-3-----3---3---3---3----15----|

Verse B
G|--------------------------------|--------------------------------|
D|--------------------------------|-----3-------3-------3-------3--|
A|-0---0---0---0---0---0---0---0--|--------------------------------|
D|--------------------------------|-3-------3-------3-------3------|

G|---------7---------------5------|--------------------------------|
D|--------------------------------|--------------------------------|
A|-5---5-----------3---3----------|-0---0---0---0---0---7---7---7-7|
D|--------------------------------|--------------------------------|

G|--------------------------------|---------7---------------5------|
D|--------------------------------|--------------------------------|
A|-7---8---8-------8---7---7---7--|-7---5-----------3---3----------|
D|--------------------------------|--------------------------------|

G|--------------------------------|--------------------------------|
D|--------------------------------|-----3-------3-------3-------3--|
A|-0---0---0---0---0---0---0---0--|--------------------------------|
D|--------------------------------|-3-------3-------3-------3------|

G|---------7---------------5------|--------------------------------|
D|--------------------------------|--------------------------------|
A|-5---5-----------3---3----------|-0---0---0---0---0---7---7---7-7|
D|--------------------------------|--------------------------------|

G|--------------------------------|--------------------------------|
D|--------------------------------|-------------7-------7------7---|
A|-7---8---8-------8---7---7-7-7--|-7---5---5----------------------|
D|--------------------------------|--------------------------------|

G|--------------------------------|
D|-7---------------8---8---8---8--|
A|-----5---5---5------------------|
D|--------------------------------|

Verse C
G|--------------------------------|--------------------------------|
D|--------------------------------|--------------------------------|
A|--------------------------------|--------------------------------|
D|-8---8---8---8---8---8---8---8--|-3---3---3---3---3---3---3---3--|

G|--------------------------------|
D|--------------------------------|
A|--------------------------------|
D|-0---0---0---0---0---0---0---0--|

G|--------------------------------|--------------------------------|
D|--------------------------------|--------------------------------|
A|--------------------------------|--------------------------------|
D|-8---8---8---8---8---8---8---8--|-3---3---3---3---3---3---3---3--|

G|--------------------------------|--------------------------------|
D|--------------------------------|--------------------------------|
A|--------------------------------|--------------------------------|
D|-0---0---0---0---0---0---0---0--|-7---7---7---7---7---7---7---7--|
[ Tab from: http://www.guitartabs.cc/tabs/i/interpol/stella_was_a_diver_and_she_was_always_down_btab.html ]
G|--------------------------------|--------------------------------|
D|--------------------------------|--------------------------------|
A|--------------------------------|--------------------------------|
D|-8---8---8---8---8---8---8---8--|-3---3---3---3---3---3---3---3--|

G|--------------------------------|
D|--------------------------------|
A|--------------------------------|
D|-0---0---0---0---0---0---0---0--|

G|--------------------------------|--------------------------------|
D|--------------------------------|--------------------------------|
A|--------------------------------|--------------------------------|
D|-8---8---8---8---8---8---8---8--|-3---3---3---3--15--15--15--15--|

G|--------------------------------|--------------------------------|
D|--------------------------------|--------------------------------|
A|--------------------------------|--------------------------------|
D|-12~~~--------------------------|--------------------------------|

Ending 2nd time player
G|--------------------------------|--------------------------------|
D|--------------------------------|--------------------------------|
A|--------------------------------|--------------------------------|
D|-15--15--15--15--15--15--14--14-|-12~~~--------------------------|

Outro A
G|--------------------------------|--------------------------------|
D|--------------------------------|--------------------------------|
A|--------------------------------|-----------------------------7-7|
D|--------------------------------|--------------------------------|

G|--------------------------------|--------------------------------|
D|--------------------------------|--------------------------------|
A|-8-------8---8-8-8-7-------7----|---5---5---5-5-------0---0---0-0|
D|--------------------------------|--------------------------------|

Outro B
G|--------------------------------|--------------------------------|
D|--------------------------------|--------------------------------|
A|-----8---8-----8---7-------7----|---5---5---5-5-------0---0---0-0|
D|--------------------------------|--------------------------------|

G|--------------------------------|--------------------------------||
D|--------------------------------|--------------------------------||
A|-0---8---8-----8---7-------7----|---5---5---5-5-5-----0-0-0-----0||
D|--------------------------------|--------------------------------|| 2x

G|-----------------------9--------|-------7------------------------|
D|--------------------------------|-------------------7---7---7---7|
A|-0---8---8-----8---7-------7----|---5-------5--------------------|
D|--------------------------------|--------------------------------|

Outro C
G|--------------------------------|--------------------------------|
D|--------------------------------|--------------------------------|
A|-8------------------------------|-----------------------------7-7|
D|--------------------------------|--------------------------------|

G|--------------------------------|--------------------------------|
D|--------------------------------|--------------------------------|
A|-8-------8---8-8-8-7-------7----|---5---5---5-5-------0---0---0-0|
D|--------------------------------|--------------------------------|

Outro D
G|--------------------------------|--------------------------------|
D|--------------------------------|--------------------------------|
A|-----8---8-----8---7-------7----|---5---5---5-5-5-----0-0-0-----0|
D|--------------------------------|--------------------------------|

G|--------------------------------|--------------------------------|
D|--------------------------------|---------------------7-7-7-7-7-7|
A|-0---8---8-----8---7-------7----|---5---5---5-5------------------|
D|--------------------------------|--------------------------------|

Outro E
G|--------------------------------|--------------------------------|
D|--------------------------------|--------------------------------|
A|-8~~~---------------------------|--------------------------------|
D|--------------------------------|--------------------------------|

G|--------------------------------|--------------------------------|
D|--------------------------------|--------------------------------|
A|-5~~~---------------------------|--------------------------------|
D|--------------------------------|------------------------------2-|

G|--------------------------------|--------------------------------|
D|--------------------------------|--------------------------------|
A|--------------------------------|--------------------------------|
D|-3~~----------------------------|--------------------------------|

Outro F
G|--------------------------------|--------------------------------|
D|--------------------------------|--------------------------------|
A|--------------------------------|--------------------------------|
D|-0~~~---------------------------|--------------------------------|

G|--------------------------------|--------------------------------|
D|--------------------------------|--------------------------------|
A|-1~~~---------------------------|--------------------------------|
D|--------------------------------|--------------------------------|

Outro G
G|--------------------------------|--------------------------------|
D|--------------------------------|--------------------------------|
A|--------------------------------|--------------------------------|
D|-0~~~---------------------------|--------------------------------|


[00:0x] Intro
[00:19] Verse A
[00:54] Break
[01:14] Verse B (She was all right...)
[01:41] Verse C (She broke away)

[02:19] Intro
[02:23] Verse A
[02:57] Break
[03:19] Verse B
[03:47] Verse C

[04:22] Outro A
[04:31] Outro B 2x
[05:04] Outro C 2x
[05:21] Outro D 2x
[05:33] Outro E
[05:50] Outro F 2x
[06:07] Outro G
Comments