Interpol - Song Seven Chords & Tabs

 

Song Seven Chords & Tabs

Interpol Chords & Tabs

Version: 2 Type: Tab

Song Seven Tab

   
-------------------------------------------------------------------------------
			     Song seven - Interpol
-------------------------------------------------------------------------------
Tabbed by: Stino
Email: vivalaons@scarlet.be
Tuning: eBGDAE
You'll have to find the rythm yourself.

Verse (Daniel) (add delay)
e|-7---7---7---7---7---7---7-------------------------------------------------|
B|-0-0-0-0-0-0-0-0-0-0-0-0-0-------------------------------------------------|
G|---------------------------------------------------------------------------|
D|---------------------------7-----------------------------------------------|
A|---------------------------------------------------------------------------|
E|---------------------------------------------------------------------------|


Verse (Paul) falls in after 4 times.
e|---------------------------------------------------------------------------|
B|-7//-8//-7//-8//-----------------------------------------------------------|
G|-9//-9//-7//-7//-----------------------------------------------------------|
D|---------------------------------------------------------------------------|
A|---------------------------------------------------------------------------|
E|---------------------------------------------------------------------------|


Chorus:
(Paul)
e|---------------------------------------------------------------------------|
B|-3//-0-//-2----------------------------------------------------------------|
G|-4//-4-//-3----------------------------------------------------------------|
D|-5//-4-//-4----------------------------------------------------------------|
A|---------------------------------------------------------------------------|
E|---------------------------------------------------------------------------|


Now the verse again.

After 2nd chorus: x3
e|---------------------------------------------------------------------------|
B|-5-5-7-8-5-5---------------------------------------------------------------|
G|---------------------------------------------------------------------------|
D|---------------------------------------------------------------------------|
A|---------------------------------------------------------------------------|
E|---------------------------------------------------------------------------|

Paul plays the verse again
[ Tab from: http://www.guitartabs.cc/tabs/i/interpol/song_seven_tab_ver_2.html ]
Then
Daniel does: (I think it's fast picking)
e|---------------------------------------------------------------------------|
B|---------------------------------------------------------------------------|
G|---------------------------------------------------------------------------|
D|---------------------------------------------------------------------------|
A|-9-7-9-7-9-7-2-12-10-------------------------------------------------------|
E|---------------------------------------------------------------------------|


And Paul does this after a while: (fast picking too, I think)
e|----------------------------|  |------------------------------| |-----------------------------------------------------|
B|----------------------------|  |------------------------------| |-----------------------------------------------------|
G|----------------------------|  |------------------------------| |-----------------------------------------------------|
D|----------------------------|  |------------------------------| |-----------------------------------------------------|
A|-9-7-9-7-9-7----------------|  |-9-4-7-5-2-5------------------| |-12-10-9-10---12-10-9-10-7---12-10-9-10-12-14-17-21--|
E|-------------7-5-3----------|  |------------------------------| |-----------------------------------------------------|

Then the verse comes back with a minor adjustment:
e|--------------------|   |-------------------------------------------------------|
B|-7//-8//-7//-8//----|x2 |-10//-12//---------------------------------------------|
G|-9//-9//-7//-7//----|   |-11//-12//---------------------------------------------|
D|--------------------|   |-------------------------------------------------------|
A|--------------------|   |-------------------------------------------------------|
E|--------------------|   |-------------------------------------------------------|


Outro Daniel (play until the ending)
e|-------------------------------------------------------------------------------------------|
B|-------------------------------------10-10-10-12-12-12-12-12-10-10-10-12-12-12-12-12-------|
G|-14-14-14-14-12-12-12-12-11-11-11-11-------------------------------------------------11/14-|
D|-------------------------------------------------------------------------------------------|
A|-------------------------------------------------------------------------------------------|
E|-------------------------------------------------------------------------------------------|

I think that Paul plays the verse again under this part but I'm not sure it's hard to
tab, well anyway it sounds good with the verse under it.


It still has some errors I know but you can correct them easily.

| /  slide up
| \  slide down
| h  hammer-on
| p  pull-off
| ~  vibrato
| +  harmonic
| x  Mute note
===============================================================================