Interpol - Song Seven Chords & Tabs

 

Song Seven Chords & Tabs

Interpol Chords & Tabs

Version: 1 Type: Tab 0 ratings
1 star 2 stars 3 stars 4 stars 5 stars
comments

Song Seven Tab

   
-------------------------------------------------------------------------------
			     SONG SEVEN - Interpol
-------------------------------------------------------------------------------
Tabbed by: Carswellium
Email: carswellium@hotmail.com

Tuning: Standard

This tab is for the version which you can download from their website using the
opendisc thingy.  It's probably mightily similar to the original version, though.
[ Tab from: http://www.guitartabs.cc/tabs/i/interpol/song_seven_tab.html ]
Guitar 1:
e|-7---7---7---7---7---7---7---7---7---7---7---7---7---7---7---7---|
B|-0-0-0-0-0-0-0-0-0-0-0-0-0---0---0-0-0-0-0-0-0-0-0-0-0-0-0---0---|
G|-----------------------------------------------------------------|
D|---------------------------7---7---------------------------7---7-|
A|-----------------------------------------------------------------|
E|-----------------------------------------------------------------|

Guitar 2:
e|-2-2-2-2-2-2-2-2-3-3-3-3-3-3-3-3-2-2-2-2-2-2-2-2-3-3-3-3-3-3-3-3-|
B|-3-3-3-3-3-3-3-3-5-5-5-5-5-5-5-5-3-3-3-3-3-3-3-3-5-5-5-5-5-5-5-5-|
G|-4-4-4-4-4-4-4-4-4-4-4-4-4-4-4-4-4-4-4-4-4-4-4-4-4-4-4-4-4-4-4-4-|
D|-----------------------------------------------------------------|
A|-----------------------------------------------------------------|
E|-----------------------------------------------------------------|


| /  slide up
| \  slide down
| h  hammer-on
| p  pull-off
| ~  vibrato
| +  harmonic
| x  Mute note
===============================================================================
Comments