Interpol - Slow Hands Chords & Tabs

 

Slow Hands Chords & Tabs

Interpol Chords & Tabs

Version: 1 Type: Tab 0 ratings
1 star 2 stars 3 stars 4 stars 5 stars
comments

Slow Hands Tab

   
Interpol - Slow Hands (Antics)

tabbed by
Les Swensen / morgscope@hotmail.com

Intro

 e---------------------------------|
 B---------------------------------|
 G---------------------------------|
 D---------------------------------| x4 (enter Gtr2 second bar)
 A-----------------2-2-2-2-2-2-2-2-|
 E-3-3-3-3-3-3-3-3-----------------|

Verse

 Guitar 1. (Paul)
 e--------|--------|--------|--------|--------|--------|--------|--------|
 B--------|--------|--------|--------|--------|--------|--------|--------|
 G-7-7-7-7|-7-7-7-7|-7-7-7-7|-7-7-7s-|-5-5-5-5|-5-5-5-5|-4-4-4-4|-4-4-4--|
 D--------|--------|--------|--------|--------|--------|--------|--------|x3
 A-5-5-5-5|-5-5-5-5|-5-5-5-5|-5-5-5s-|-3-3-3-3|-3-3-3-3|-2-2-2-2|-2-2-2--|
 E--------|--------|--------|--------|--------|--------|--------|--------|

 e--------|--------|--------|--------|--------|--------|--------|--------|
 B--------|--------|--------|--------|--------|--------|--------|--------|
 G-7-7-7-7|-7-7-7-7|-7-7-7-7|-7-7-7s-|-5-5-5-5|-5-5-5-5|-4s-----|-9-9-9-9|
 D--------|--------|--------|--------|--------|--------|--------|--------|x1
 A-5-5-5-5|-5-5-5-5|-5-5-5-5|-5-5-5s-|-3-3-3-3|-3-3-3-3|-2s-----|-7-7-7-7|
 E--------|--------|--------|--------|--------|--------|--------|--------|

 Guitar 2. (Dan)
 e--------|--------|--------|--------|--------|--------|--------|--------|
 B--------|--------|--------|--------|--------|--------|--------|--------|
 G--------|--------|--------|--------|--------|--------|--------|--------|
 D--------|--------|--------|--------|--------|--------|--------|--------|x2
 A--------|--------|--------|--------|--------|--------|--------|--------|
 E-3-3-3-3|-3-3-3-3|-3-3-3-3|-3-3-3s-|-5-5-5-5|-5-5-5-5|-0-0-0-0|-0-0-0--|

 e--------|--------|--------|--------|--------|--------|--------|--------|
 B--------|--------|--------|--------|--------|--------|--------|--------|
 G-7-7-7-4|-7-7-7-4|-7-7-7-4|-7-7-7-4|-5-5-5-4|-5-5-5-4|-4-4s--9|-9-9-9-9|
 D--------|--------|--------|--------|--------|--------|--------|--------|x2
 A--------|--------|--------|--------|--------|--------|--------|--------|
 E--------|--------|--------|--------|--------|--------|--------|--------|

Bridge 1

 Guitar 2. (Dan)
 e----------------------------------------------------------------|
 B----------------------------------------------------------------|
 G----------------------------------------------------------------|
 D-------------------------5-5-5-5--------------------------------|x2
 A-2-2-2-2-5-5-5-5-7-7-7-7---------0-0-0-0-0-0-0-0-0-0-0-0-0-0-0-0|
 E----------------------------------------------------------------|

 Guitar 1. (Paul)
 e----------------------------------------------------------------|
 B----------------------------------------------------------------|
 G--------------------------------------------------------(9 9)9-9|
 D-------------------------------------------------------9-9-9-9-9|
 A-------------------------------------------------------7-7-7-7-7|
 E----------------------------------------------------------------|

 e------------------------------------------------
 B-12-12-12-12-10-10-10-10------------------------
 G-------------------------12-12-12s--9-9-9s--7-7-
 D-9--9--9--9--7--7--7--7-------------------------
 A-------------------------10-10-10s--7-7-7s--5-5-
 E------------------------------------------------

 -----------------------------|
 -----------------------------|
 --------------777-7-7-7-7-7-7|
 7-7-7-7-7-7-7----------------|
 --------------555-5-5-5-5-5-5|
 5-5-5-5-5-5-5----------------|

Chorus

 Guitar 1. (Paul) V = Downstrokes U = upstrokes 
 e-V--V--V-U-V-U--V--V--V-U-V-U--V--V--V-U-V-U--V--V-V-etc-|
 B---------------------------------------------------------|
 G-11-11-11111111-11-11-11111111-11-11-11111111-11-9-9-----|
 D---------------------------------------------------------|
 A-9--9--9-9-9-9--9--9--9-9-9-9--9--9--9-9-9-9--9--7-7-----| |
 E---------------------------------------------------------| |
                                                             |x2
 e---------------------------------------------------------| |
 B---------------------------------------------------------| |
 G-999-9-9999-9-9-9999-9-9-9999-9-7-7----------------------|
 D---------------------------------------------------------|
 A-777-7-7777-7-7-7777-7-7-7777-7-5-5----------------------|
 E---------------------------------------------------------|
[ Tab from: http://www.guitartabs.cc/tabs/i/interpol/slow_hands_tab.html ]
 Guitar 2. (Dan)
 e---------------------------------------------------------|
 B---------------------------------------------------------|
 G---------------------------------------------------------|
 D-9-9-9999-9-9-9999-7-7-7777-7-7-7------------------------|
 A---------------------------------------------------------| |
 E-7-7-7777-7-7-7777-5-5-5555-5-5-5------------------------| |
                                                             |x2
 e---------------------------------------------------------| |
 B---------------------------------------------------------| |
 G-9-9-9999-9-9-9999-9-7-7-7-7-7-7-------------------------|
 D---------------------------------------------------------|
 A-7-7-7777-7-7-7777-7-5-5-5-5-5-5-------------------------|
 E---------------------------------(3)(<- end chorus with this)

Verse

 same

Bridge 1

 same

Chorus

 same, except end with:
 Guitar 1. (Dan)
 D--------------------------|
 A-9----9----9--9--9--9s(0)-|
 E--------------------------|

Bridge 2

 Guitar 1. (Paul)
 e-----------------------------------------------------------------|
 B-----------------------------------------------------------------|
 G-----------------------------------------------------------------|
 D-5-5-5-5-7-7-7-7-9-9-9-9-9-9-9-9-7-7-7-7-7-----------------5-5---|
 A-------------------------------------------5-5-6-7-7-7-7-7-------|
 E-----------------------------------------------------------------|

 e-----------------------------------------------------------------|
 B-----------------------------------------------------------------|
 G-----------------------------------------------------------------|
 D-5-5-5-5-7-7-7-7-9-9-9-9-9-5-5-6-7-7-7-7-7-----------------------|
 A-------------------------------------------5-5-6-7-7-7-7-7-------|
 E-----------------------------------------------------------------|

 Guitar 2. (Dan) End with:
 D-5s9-|

Chorus

 Guitar 1. (Paul)
 e---------------------------------------------------------|
 B---------------------------------------------------------|
 G-11-11-11111111-11-11-11111111-11-11-11111111-11-9-9-----|
 D---------------------------------------------------------|
 A-9--9--9-9-9-9--9--9--9-9-9-9--9--9--9-9-9-9--9--7-7-----|
 E---------------------------------------------------------|

 e---------------------------------------------------------|
 B---------------------------------------------------------|
 G-999-9-9999-9-9-9999-9-9-9999-9-7-7----------------------|
 D---------------------------------------------------------|
 A-777-7-7777-7-7-7777-7-7-7777-7-5-5----------------------|
 E---------------------------------------------------------|

 e---------------------------------------------------------|
 B---------------------------------------------------------|
 G-11-11-11111111-11-11-11111111-11-11-11111111-11-9-9-----|
 D---------------------------------------------------------|
 A-9--9--9-9-9-9--9--9--9-9-9-9--9--9--9-9-9-9--9--7-7-----|
 E---------------------------------------------------------|

 e---------------------------------------------------------|
 B---------------------------------------------------------|
 G-999-9-9999-9-9-9999-9-9-9-121212-141414-----------------|
 D---------------------------------------------------------|
 A-777-7-7777-7-7-7777-7-7-7-101010-121212-----------------|
 E---------------------------------------------------------|

 e---------------------------------------------------------|
 B---------------------------------------------------------|
 G-16-16-16161616-16-16-16-1616-16-16-16161616-16-16-16-..-|
 D---------------------------------------------------------| etc till ending
 A-14-14-14141414-14-14-14-1414-14-14-14141414-14-14-14-..-|
 E---------------------------------------------------------|

 Guitar 2. (Dan)
 e---------------------------------------------------------|
 B---------------------------------------------------------|
 G---------------------------------------------------------|
 D-9-9-9999-9-9-9999-7-7-7777-7-7-7------------------------|
 A---------------------------------------------------------|
 E-7-7-7777-7-7-7777-5-5-5555-5-5-5------------------------|

 e---------------------------------------------------------|
 B---------------------------------------------------------|
 G-9-9-9999-9-9-9999-9-7-7-7-7-7-7-------------------------|
 D---------------------------------------------------------|
 A-7-7-7777-7-7-7777-7-5-5-5-5-5-5-------------------------|
 E---------------------------------------------------------|

 e---------------------------------------------------------|
 B---------------------------------------------------------|
 G---------------------------------------------------------|
 D-9-9-9999-9-9-9999-7-7-7777-7-7-7------------------------|
 A---------------------------------------------------------| |
 E-7-7-7777-7-7-7777-5-5-5555-5-5-5------------------------| |
                                                             |x3
 e---------------------------------------------------------| |
 B---------------------------------------------------------| |
 G-9-9-9999-9-9-9999-11-11-11-11-11-11-11------------------|
 D---------------------------------------------------------|
 A-7-7-7777-7-7-7777-9--9--9--9--9--9--9-------------------|
 E---------------------------------------------------------|

.....
ŠInterpol 2004
Comments