Interpol - Slow Hands Chords & Tabs

 

Slow Hands Chords & Tabs

Interpol Chords & Tabs

Version: 3 Type: Bass Tab

Slow Hands Bass Tab

Slow hands
interpol
Transcribed by george


After the guitars and the drums began...
G|--------------------------------------------------------------------|
D|--------------------------------------------------------------------|
A|--------------------------------------------------2-2-2-2-2-2-2-2---|
E|----------------------------------3-3-3-3-3-3-3-3-------------------|


verse 1
G|---------------------------------------------------------0-0-0-|\
D|-9-9-9-9-7-7-7-7-5-5-5-5-5-5-5-5-7-7-7-7-0-0-1-2-2-2-2-2-------| \
A|---------------------------------------------------------------| / x2
E|---------------------------------------------------------------|/

verse 2
G|--------------------------------------------------------------------|
D|-----------------------------------------------5---------------5----|
A|-2-2-2-2-2-------2-2-2-2-5-5-5-5-7-7-7---7---7---7-7-7---7---7------|
E|-----------3-3-3-----------------------7---7-----------7---7--------|


G|----------------------------------------------------------9-9-9-----|
D|--------------------------------------------------------9-----------|
A|-2-2-2-2-2-------2-2-2-2-5-5-5-5-7-7-7---7-7-7----7-7-7-------------|
E|-----------3-3-3-----------------------7--------7-------------------|

pre-chorus
G|-16-16-16-16-14-14-14-14-12-12-12-12---------------------------------------|
D|-------------------------------------14-14-12------------------------------|
A|----------------------------------------------14-12-12-12-12-12-12-12-12---|
E|---------------------------------------------------------------------------|

G|---------------------------------------------------------------------------|
D|----------------------------14-14-14-14-12-12-12-------------12-12-12------|
A|-12-12-12-12-12-12-12-12-12----------------------14-14-14-14---------------|
E|---------------------------------------------------------------------------|

G|----------12-12-12-12_12---------------------------------------------|
D|-14-14-14----------------14-14-14------------------------------------|
A|----------------------------------0-0-0-0-0-0-0-0-0-0-0-0-0-0--------|
E|---------------------------------------------------------------------|

chorus

G|--------------------------------9--9--9--8---7--7--7--7--------|\
D|---9--9--9--8----7--7--7--7------------------------------------| \
A|------------------------------7--7--7--7---5--5--5--5----------| /x2
E|-7--7--7--7----5--5--5--5--------------------------------------|/

after the chorus a 4 times silence and then...

verse 1
G|---------------------------------------------------------0-0-0-|\
D|-9-9-9-9-7-7-7-7-5-5-5-5-5-5-5-5-7-7-7-7-0-0-1-2-2-2-2-2-------| \
A|---------------------------------------------------------------| / x2
E|---------------------------------------------------------------|/
[ Tab from: http://www.guitartabs.cc/tabs/i/interpol/slow_hands_btab_ver_3.html ]
verse 2
G|--------------------------------------------------------------------|
D|-----------------------------------------------5---------------5----|
A|-2-2-2-2-2-------2-2-2-2-5-5-5-5-7-7-7---7---7---7-7-7---7---7------|
E|-----------3-3-3-----------------------7---7-----------7---7--------|


G|----------------------------------------------------------9-9-9-----|
D|--------------------------------------------------------9-----------|
A|-2-2-2-2-2-------2-2-2-2-5-5-5-5-7-7-7---7-7-7----7-7-7-------------|
E|-----------3-3-3-----------------------7--------7-------------------|

pre-chorus
G|-16-16-16-16-14-14-14-14-12-12-12-12---------------------------------------|
D|-------------------------------------14-14-12------------------------------|
A|----------------------------------------------14-12-12-12-12-12-12-12-12---|
E|---------------------------------------------------------------------------|

G|---------------------------------------------------------------------------|
D|----------------------------14-14-14-14-12-12-12-------------12-12-12------|
A|-12-12-12-12-12-12-12-12-12----------------------14-14-14-14---------------|
E|---------------------------------------------------------------------------|

G|----------12-12-12-12_12---------------------------------------------|
D|-14-14-14----------------14-14-14------------------------------------|
A|----------------------------------0-0-0-0-0-0-0-0-0-0-0-0-0-0--------|
E|---------------------------------------------------------------------|

chorus
G|--------------------------------9--9--9--8---7--7--7--7--------|\
D|---9--9--9--8----7--7--7--7------------------------------------| \
A|------------------------------7--7--7--7---5--5--5--5----------| /x2
E|-7--7--7--7----5--5--5--5--------------------------------------|/


This change a little. Insted of the 4 times silence...
G|------------------------------------|
D|--7-9-9-9-7-9-9-9-7-9-9-9-7-9-9-9-7-|
A|------------------------------------|
E|------------------------------------|


verse 1
G|---------------------------------------------------------0-0-0-|\
D|-9-9-9-9-7-7-7-7-5-5-5-5-5-5-5-5-7-7-7-7-0-0-1-2-2-2-2-2-------| \
A|---------------------------------------------------------------| / x2
E|---------------------------------------------------------------|/

G|---------------------------------------------7-7-9-9-9-9-9-9-9-|
D|-9-9-9-9-7-7-7-7-5-5-5-5-5-5-5-5-7-7-7-7-9-9-------------------| 
A|---------------------------------------------------------------|
E|---------------------------------------------------------------|

Final chorus 
G|--------------------------------9--9--9--8---7--7--7--7--------|\
D|---9--9--9--8----7--7--7--7------------------------------------| \
A|------------------------------7--7--7--7---5--5--5--5----------| /x3
E|-7--7--7--7----5--5--5--5--------------------------------------|/


I have some thing around the end of the pre-chorus and at the end of the final chorus,
so fi you get it please mail me.
-- berthlem@yahoo.com --
thanks.