Interpol - Slow Hands Chords & Tabs

 

Slow Hands Chords & Tabs

Interpol Chords & Tabs

Version: 1 Type: Bass Tab 0 ratings
1 star 2 stars 3 stars 4 stars 5 stars
comments

Slow Hands Bass Tab

Intro (Towards the very end of the guitar intro)
G----------------------------|
D----------------------------|
A----------------------------|
E-3-3-3-3-3-3-3-3-3----------|

Verse 1
G-------------------------------------------------------------------|
D-------------------------------------------------------------------|
A----------------------0-0-0-0-0-0-0-0------------------------------|
E-3-3-3-3-3-3-3-3-----------------------0-0-0-0-0-0-0-0-------------|

G---------------------------------------------------------------------------|
D-----------------------------------------------------------------5---------|
A----------------------------------5-5-5-5-7-7-7-5-7-5-7-----7-7-7-5-7-5-7--|
E-7-7-7-7-3-3-3-3-7-7-7-7---------------------------------------------------| x2

G-16-16-16-16-14-14-14-14-12-12-12-12----------------------------------------------------------|
D-------------------------------------------------------14-14-12-------------------------------|
A---------------------------------------------------------------------12-12-12-12-12-12-12-12--|
E----------------------------------------------------------------------------------------------|
[ Tab from: http://www.guitartabs.cc/tabs/i/interpol/slow_hands_btab.html ]
G------------------------------------------------------------------------------------------|
D--------------14-14-14-12-12-12-----------------------------------------------------------|
A-12-12-12---------------------------------------------------------7-7-7-7-10-10-10-10-10--|
E------------------------------------------7-7-7-7-10-10-10-10-----------------------------|

Chorus
G------------------------------------------------------------------------------|
D---------------------------------------------2-2-2-2-2-2-2-2-0-0-0-0-0-0-0-0--|
A-2-2-2-2-2-2-2-2-0-0-0-0-0-0-0-0----------------------------------------------|
E------------------------------------------------------------------------------|

Bass Solo
G--------------------------------------------------------------------|
D-9-9-9--7--9-9-9--7--9-9-9--7--9-9-9--------------------------------|
A--------------------------------------------------------------------|
E--------------------------------------------------------------------|

G----------------------------------------------------------------------|
D--9-9-9-9--7-7-7-7--5-5-5-5-5-5-5--6-7-7-7-7-7-----------------5-5-5--|
A----------------------------------------------5-5--6--7-7-7-7-7-------|
E----------------------------------------------------------------------| x2

G---------------------------------------------------------------------12-12-14-14--|
D-9-9-9-9-7-7-7-7-5-5-5-5-5-5-5-6-7-7-7-7-7-9-9-12-12--14-14-14-14-14--------------|
A----------------------------------------------------------------------------------|
E----------------------------------------------------------------------------------|
Comments