Interpol - Roland Chords & Tabs

 

Roland Chords & Tabs

Interpol Chords & Tabs

Version: 3 Type: Tab 0 ratings
1 star 2 stars 3 stars 4 stars 5 stars
comments

Roland Tab

   
Interpol
Roland 

Intro
Guitar 1 
e|-----------------------|
B|-----------------------| 
G|-----------------------| 
D|-----------------------| x3
A|--7-7-7-7-7-7-7-7-7~~~-| 
E|-8-8-8-8-8-8-8-8--0~~~-| 

Guitar 2
e|----------------------------------------------| 
B|----------------------------------------------| 
G|----------------------------------------------| 
D|-9-10-9-10-9-10-9-10-9-10-9-10-9-10-9-10-9~~~-| 
A|----------------------------------------------| 
E|----------------------------------------------| 

Last Time
Guitar 1
e|-----------------------------| 
B|-----------------------------| 
G|------------------9-//-10-//-| 
D|------------------x-----0-//-| 
A|--7-7-7-7-7-7-7-7-7-//--7-//-| 
E|-8-8-8-8-8-8-8-8--0-//--0-//-|

Guitar 2
e|--------------------------------------------------| 
B|--------------------------------------------------| 
G|--------------------------------------------10-//-|
D|-9-10-9-10-9-10-9-10-9-10-9-10-9-10-9-10-9--------| 
A|--------------------------------------------------| 
E|--------------------------------------------------|

Verse "My best friend's a butcher"
Guitar 1
e|--------------| 
B|--------------| 
G|-9-//-9-//-10-| 
D|-x-//-x-----0-| x3 
A|-7-//-7-//--7-| 
E|-8-//-------0-|

Guitar 2
e|-----------------------------------------------------------------| 
B|-----------------------------------------------------------------| 
G|-----------------------------------------------------------------| 
D|-9-10-9-10-9-10-9-10-9-10-9-10-9-10-9-10-9--9-10--9-7---12--10-9-| 
A|-----------------------------------------------------------------| 
E|-----------------------------------------------------------------| 

e|-----------------------------------------------------------| 
B|-----------------------------------------------------------| 
G|-----------------------------------------------------10-//-| x2.5
D|-9-10-9-10-9-10-9-10-9-10-9-10-9-10-9-10-9--9-10--9--------| 
A|-----------------------------------------------------------| 
E|-----------------------------------------------------------| 

Last Time
Guitar 1
e|-------------| 
B|-10-//-10-//-| 
G|--9-//--9-//-| 
D|--x-//--7-//-| 
A|--7-//--7-//-| 
E|--8-//--7-//-|

Guitar 2
e|-----------------------------------------| 
B|-----------------------------------------| 
G|-----------------------------------------| 
D|-9-10-9-10-9-10-9-10-9-10-9-10-9-10-9-10-|
A|-----------------------------------------|
E|-----------------------------------------| 

Chorus "He severed segments so secretly..."
e|----------------------------| 
B|----------------------------| 
G|----------------------------| 
D|-5-//-4-//------------------| x3
A|-x----x-------555-----555---| 
E|-3-//-2-//-000---77000---77-|

Guitar 2
e|------------------------------|
B|------------------------------| 
G|---------------777-----777----|
D|-5-//--4-//--------99------99-| x3
A|-x-----x----------------------| 
E|-3-//--2-//--000-----000------|
[ Tab from: http://www.guitartabs.cc/tabs/i/interpol/roland_tab_ver_3.html ]
"He always took the time"
Guitar 1
e|------------------------| 
B|------------------------| 
G|------------------------| 
D|-5-//--4-//-------------|
A|-x-----x-----7-//--7-//-| 
E|-3-//--2-//--5-//--7-//-|

Guitar 2
e|------------------------------| 
B|------------------------------| 
G|------------------------------|
D|-8-9-8--9--8-9--9-8--9--8-9-8-|
A|------------------------------| 
E|------------------------------| 

Pre-Verse
Guitar 1
e|-----------------------|
B|-----------------------| 
G|-----------------------| 
D|-----------------------|
A|--7-7-7-7-7-7-7-7-7~~~-| 
E|-8-8-8-8-8-8-8-8--0~~~-|

Guitar 2
e|------------------------------| 
B|------------------------------| 
G|------------------------------|
D|-8-9-8--9--8-9--9-8--9--8-9-8-|
A|------------------------------| 
E|------------------------------|

Guitar 1
e|-----------------------------| 
B|-----------------------------| 
G|------------------9-//-10-//-| 
D|------------------x-----0-//-| 
A|--7-7-7-7-7-7-7-7-7-//--7-//-| 
E|-8-8-8-8-8-8-8-8--0-//--0-//-|

Guitar 2
e|--------------------------------------------------|
B|--------------------------------------------------|
G|--------------------------------------------10-//-|
D|-8-9-8--9--8-9--9-8--9--8-9-12--9-8--9--8-9-------|
A|--------------------------------------------------|
E|--------------------------------------------------| 

Verse and Chorus Again

"He was growing on me"
Both Guitars
e|------------------------------------------| 
B|------------------------------------------| 
G|------------------------------------------| 
D|-5-//-4-//-7-//-9-//-5-//-7-//-9-//-12-//-| 
A|-x----x----x----x----x----x----x-----x----| 
E|-3-//-2-//-5-//-7-//-3-//-5-//-7-//-10-//-|

Interlude
Guitar 1
e|-----------------------------------------7--------------7-------| 
B|---------------------------------------7---7----------7---7-----| 
G|---------9-9-------------9-9---------9-------9------9-------9---| x3.5 
D|-(10)-10-----10-9--10-10-----10-9--9-----------9--9-----------9-| 
A|----------------------------------------------------------------| 
E|----------------------------------------------------------------|

E|-7-//-| 
B|-7-//-| 
G|-9-//-| 
D|-9-//-| 
A|------| 
E|------| 

Guitar 2
e|--------------------------| 
B|-17-//--19-//-20-//-19-//-| 
G|--------------------------| 
D|--------------------------| 
A|--------------------------| 
E|--------------------------| 

e|-------19-//-------20-//-------| 
B|-17-//-------17-//-------17-//-| 
G|-------------------------------| 
D|-------------------------------| x2
A|-------------------------------| 
E|-------------------------------|  

Outro
Guitar 1
e|------------| 
B|------------| 
G|-------9-//-| 
D|-10-//-9-//-| x4
A|-10-//-7-//-| 
E|--8-//-0-//-|

Guitar 2
e|------------------------------------------| 
B|------------------------------------------| 
G|-17-//-16-//-19-//------------17-16-17-16-|  
D|------------------17-//-16-//-------------| x4
A|------------------------------------------| 
E|------------------------------------------|

End
Guitar 1
e|-------| 
B|-------| 
G|-------| 
D|-10~~~-| 
A|-10~~~-| 
E|--8~~~-| 

Guitar 2
e|-------|
B|-------|
G|-17~~~-|
D|-------|
A|-------|
E|-------|
Comments