Interpol - Roland Chords & Tabs

 

Roland Chords & Tabs

Interpol Chords & Tabs

Version: 2 Type: Tab 0 ratings
1 star 2 stars 3 stars 4 stars 5 stars
comments

Roland Tab

   
SONG: Roland
BAND: Interpol
ALBUM: Turn On The Bright Lights
TAB BY: Luisus (pixieluis@msn.com)  

Hi. This tab is for only one guitar. I Hope it'll help you and that's 
why I explain all. I think this tab can't be better (I think it's
100% correct) but corrections are welcome. If you're another 
"Interpol Fan", contact me. This tab is very good to be my first tab.
Enjoy what you do. If not, there's no sense in doing it.
See ya.

>=let it ring

e[----------------------| 
b[----------------------| 
g[----------------------| 
D[----------------------| 
A[--7-7-7-7-7-7-7-7-7>--|
E[-8-8-8-8-8-8-8-8--0>--|


e[------------------------------| 
b[------------------------------| 
g[------------------------------| 
D[------------------------------| 
A[--7-7-7-7-7-7-7-7-7>----------|
E[-8-8-8-8-8-8-8-8--0>--7-7-7-7-|


e[---------------------------------------------|
b[---------------------------------------------|
g[---------------------------------------------|
D[-9-10-9-10-9-10-9-10-9-10-9-10-9-10-9-10-9>--|
A[---------------------------------------------|
E[---------------------------------------------|


e[-------------------------------------------------------------|
b[-------------------------------------------------------------|
g[---------------------------------------------1010101010101010|
D[-9-10-9-10-9-10-9-10-9-10-9-10-9-10-9-10-9>---9-9-9-9-9-9-9-9|
A[-------------------------------------------------------------|
E[-------------------------------------------------------------|


"My best friend's a butcher, he has sixteen knives"
e[-------------------------------------------------------------|
b[-------------------------------------------------------------|
g[-------------------------------------------------------------|
D[-9-10-9-10-9-10-9-10-9-10-9-10-9-10-9-10-9-9-10-9-7-12-10-9--|
A[-------------------------------------------------------------|
E[-------------------------------------------------------------|


"He carries them all over the town at least he tries,Oh look it stopped snowing"
e[--------------------------------------------------------------------|
b[--------------------------------------------------------------------|
g[----------------------------------------------------1010101010101010|
D[-9-10-9-10-9-10-9-10-9-10-9-10-9-10-9-10-9-9-10-9---9-9-9-9-9-9-9-9-|
A[--------------------------------------------------------------------|
E[--------------------------------------------------------------------|


"My best friend's from Poland and, um, he has a beard."
e[-------------------------------------------------------------|
b[-------------------------------------------------------------|
g[-------------------------------------------------------------|
D[-9-10-9-10-9-10-9-10-9-10-9-10-9-10-9-10-9-9-10-9-7-12-10-9--|
A[-------------------------------------------------------------|
E[-------------------------------------------------------------|


"But they caught him with his case in that public place, That is what we had feared"
e[-------------------------------------------------------------------------|
b[-------------------------------------------------------------------------|
g[-------------------------------------------------------------------------|
D[-9-10-9-10-9-10-9-10-9-10-9-10-9-10-9-10-9-10-9-10-9-10-9-10-9-10-9-10-9-|
A[-------------------------------------------------------------------------|
E[-------------------------------------------------------------------------|


He severed segments secretly you like that
e[-------------------------------------------------------------|
b[-------------------------------------------------------------|
g[-------------------------------------------------------------|
D[-5-5-5-5-5-5-5-5-4-4-4-4-4-4-4-4-------0-0-----------0-0-----|
A[-------------------------------------------2-2-----------2-2-|
E[---------------------------------0-0-0---------0-0-0---------|





He always took the time to speak with me
I liked him for that.
e[-------------------------------------------------------------|
b[-------------------------------------------------------------|
g[-------------------------------------------------------------|
D[-5-5-5-5-5-5-5-5-4-4-4-4-4-4-4-4-------0-0-----------0-0-----|
A[-------------------------------------------2-2-----------2-2-|
E[---------------------------------0-0-0---------0-0-0---------|


He severed segments so secretly you like that
e[-------------------------------------------------------------|
b[-------------------------------------------------------------|
g[-------------------------------------------------------------|
D[-5-5-5-5-5-5-5-5-4-4-4-4-4-4-4-4-------0-0-----------0-0-----|
A[-------------------------------------------2-2-----------2-2-|
E[---------------------------------0-0-0---------0-0-0---------|


He always took the time... ...He always took the time                 
e[---------------------------|
b[---------------------------|
g[---------------------------|
D[-8-9-8--9-8-99-8-9-8-9-8>--|
A[---------------------------|
E[---------------------------|


e[---------------------------|
b[---------------------------|
g[---------------------------|
D[-8-9-8--9-8-99-8-9-8-9-8>--|
A[---------------------------|
E[---------------------------|


e[--------------------------------------------------|
b[--------------------------------------------------|
g[---------------------------------1010101010101010-|
D[-8-9-8--9-8-99-8-9--8-9-12-9-8-9--9-9-9-9-9-9-9-9-|
A[--------------------------------------------------|
E[--------------------------------------------------|


"My best friend's a butcher, he has sixteen knives"
e[-------------------------------------------------------------|
b[-------------------------------------------------------------|
g[-------------------------------------------------------------|
D[-9-10-9-10-9-10-9-10-9-10-9-10-9-10-9-10-9-9-10-9-7-12-10-9--|
A[-------------------------------------------------------------|
E[-------------------------------------------------------------|

[ Tab from: http://www.guitartabs.cc/tabs/i/interpol/roland_tab_ver_2.html ]
"He carries them all over the town at least he tries,Oh look it stopped snowing"
e[--------------------------------------------------------------------|
b[--------------------------------------------------------------------|
g[----------------------------------------------------1010101010101010|
D[-9-10-9-10-9-10-9-10-9-10-9-10-9-10-9-10-9-9-10-9---9-9-9-9-9-9-9-9-|
A[--------------------------------------------------------------------|
E[--------------------------------------------------------------------|


"My best friend's from Poland and, um, he has a beard."
e[-------------------------------------------------------------|
b[-------------------------------------------------------------|
g[-------------------------------------------------------------|
D[-9-10-9-10-9-10-9-10-9-10-9-10-9-10-9-10-9-9-10-9-7-12-10-9--|
A[-------------------------------------------------------------|
E[-------------------------------------------------------------|


"But they caught him with his case in that public place, That is what we had feared"
e[-------------------------------------------------------------------------|
b[-------------------------------------------------------------------------|
g[-------------------------------------------------------------------------|
D[-9-10-9-10-9-10-9-10-9-10-9-10-9-10-9-10-9-10-9-10-9-10-9-10-9-10-9-10-9-|
A[-------------------------------------------------------------------------|
E[-------------------------------------------------------------------------|


He severed segments secretly you like that
e[-------------------------------------------------------------|
b[-------------------------------------------------------------|
g[-------------------------------------------------------------|
D[-5-5-5-5-5-5-5-5-4-4-4-4-4-4-4-4-------0-0-----------0-0-----|
A[-------------------------------------------2-2-----------2-2-|
E[---------------------------------0-0-0---------0-0-0---------|






He always took the time to speak with me
I liked him for that.
e[-------------------------------------------------------------|
b[-------------------------------------------------------------|
g[-------------------------------------------------------------|
D[-5-5-5-5-5-5-5-5-4-4-4-4-4-4-4-4-------0-0-----------0-0-----|
A[-------------------------------------------2-2-----------2-2-|
E[---------------------------------0-0-0---------0-0-0---------|


He severed segments so secretly you like that
e[-------------------------------------------------------------|
b[-------------------------------------------------------------|
g[-------------------------------------------------------------|
D[-5-5-5-5-5-5-5-5-4-4-4-4-4-4-4-4-------0-0-----------0-0-----|
A[-------------------------------------------2-2-----------2-2-|
E[---------------------------------0-0-0---------0-0-0---------|

He was growing on me... ...  
e[---\     /---\     /---\      /---\
b[---|     |---|     |---|      |---|
g[---|     |---|     |---|      |---|
D[-5-|(x8) |-4-|(x8) |-7-|(x12) |-9-|(x4)
A[---|     |---|     |---|      |---|
E[---/     \---/     \---/      \---/


... ...He was growing on me.
e[---\    /---\    /---\     /----\
b[---|    |---|    |---|     |----|
g[---|    |---|    |---|     |----|
D[-5-|(x8)|-7-|(x8)|-9-|(x12)|-12-|(x4)
A[---|    |---|    |---|     |----|
E[---/    \---/    \---/     \----/


e[----\     /----\     /----\     /----\
b[-17-|     |-19-|     |-20-|     |-19-|
g[----|     |----|     |----|     |----|
D[----|(x16)|----|(x16)|----|(x16)|----|(x16)
A[----|     |----|     |----|     |----|
E[----/     \----/     \----/     \----/


e[-------------19-19-19-19-------------20-20-20-20-| /----\
b[-17-17-17-17-------------17-17-17-17-------------| |-17-|
g[-------------------------------------------------| |----|
D[-------------------------------------------------| |----|(x16)
A[-------------------------------------------------| |----|
E[-------------------------------------------------| \----/


e[-------------19-19-19-19-------------20-20-20-20-| /----\
b[-17-17-17-17-------------17-17-17-17-------------| |-17-|
g[-------------------------------------------------| |----|
D[-------------------------------------------------| |----|(x16)
A[-------------------------------------------------| |----|
E[-------------------------------------------------| \----/


e[-------------------------------------------------
b[-13-13-13-13-13-13-13-13-12-12-12-15-15-15-15-15-
g[-------------------------------------------------
D[-------------------------------------------------
A[-------------------------------------------------
E[-------------------------------------------------

-------------------------------------------------|
-------------------------------------13-12-13-12-|
-12-12-12-12-12-12-12-12-11-11-11-11-------------|
-------------------------------------------------|
-------------------------------------------------|
-------------------------------------------------|


e[-------------------------------------------------
b[-13-13-13-13-13-13-13-13-12-12-12-15-15-15-15-15-
g[-------------------------------------------------
D[-------------------------------------------------
A[-------------------------------------------------
E[-------------------------------------------------

-------------------------------------------------|
-------------------------------------13-12-13-12-|
-12-12-12-12-12-12-12-12-11-11-11-11-------------|
-------------------------------------------------|
-------------------------------------------------|
-------------------------------------------------|






e[-------------------------------------------------
b[-13-13-13-13-13-13-13-13-12-12-12-15-15-15-15-15-
g[-------------------------------------------------
D[-------------------------------------------------
A[-------------------------------------------------
E[-------------------------------------------------

-------------------------------------------------|
-------------------------------------13-12-13-12-|
-12-12-12-12-12-12-12-12-11-11-11-11-------------|
-------------------------------------------------|
-------------------------------------------------|
-------------------------------------------------|


e[-------------------------------------------------
b[-13-13-13-13-13-13-13-13-12-12-12-15-15-15-15-15-
g[-------------------------------------------------
D[-------------------------------------------------
A[-------------------------------------------------
E[-------------------------------------------------

-----------------------------------------------------|
-------------------------------------13-12-13-12-13>-|
-12-12-12-12-12-12-12-12-11-11-11-11-----------------|
-----------------------------------------------------|
-----------------------------------------------------|
-----------------------------------------------------|

P L E A S E    Rate this tab
Comments