Interpol - Pda Chords & Tabs

 

Pda Chords & Tabs

Interpol Chords & Tabs

Version: 1 Type: Tab 0 ratings
1 star 2 stars 3 stars 4 stars 5 stars
comments

Pda Tab

   
PDA 

Words and Music by Interpol
Transcribed by Zach Spickenreuther
 
 Intro
  Moderately Fast Rock Q=142
 4/4
  Gtrs I, II
  Wx4
|--------|
|--------|
|--------|
|--------|
|--------|
|--------|


 Verse 1
  B5          Bm6           D         B5      Bm6           Bm7   B5
 4/4
  Gtr I
  E E E E E E E E   E E E E E E E E   E E E E E E E E    E  E E E E E E E
|-----------------|-----------------|-----------------|-------------------|
|-----------------|-----------------|-----------------|-------------------|
|-----------------|-----------------|-4-4-4-4-4-4-4-4-|--4--4-4-4-4-4-4-4-|
|-4-4-4-4-4-4-4-4-|-4-4-4-4-4-4-4-4-|-----------------|-------------------|
|-2-2-2-2-2-2-2-2-|-2-2-2-2-5-5-5-5-|-----------------|-------------------|
|-----------------|-----------------|-----------------|-------------------|
|
| Gtr II
| E E E E E E E E   E E E E E E E E   E E E E E E E E   +E  E E E E E E E
|-----------------|-----------------|-----------------|-------------------|
|-----------------|-----------------|-----------------|-------------------|
|-----------------|-----------------|-----------------|-----2-2-2-4-4-4-4-|
|-4-4-4-4-4-4-4-5-|-4-4-4-4-4-4-4-4-|-4-4-4-4-4-5-4-4-|-(4)-4-4-4-4-4-4-4-|
|-2-2-2-2-2-2-2---|-2-2-2-2-5-5-5-5-|-2-2-2-2-2-2-2-2-|-(2)-2-2-2-2-2-2-2-|
|-----------------|-----------------|-----------------|-------------------|


  Gadd9         Dmaj7                   G             Dmaj7
  E E E E E E E E    E  E E E E E E E   E E E E E E E E    E  E E E E E E E
|-----------------|-------------------|-----------------|--------------------|
|-----------------|-------------------|-----------------|--------------------|
|-2-2-2-2-2-2-2-2-|--2--2-2-2-2-2-2-2-|-4-4-4-4-4-4-4-4-|--4--4-4-4-4-4-4-4--|
|-----------------|-------------------|-----------------|--------------------|
|-----------------|-------------------|-----------------|--------------------|
|-----------------|-------------------|-----------------|--------------------|
|
| E E E E E E E E   +E  E E E E E E E   E E E E E E E E   +E  E E E E E E E
|---------------2-|-(2)-2-2-2-2-2-2-2-|---------------2-|-(2)-2-2-2-2-2-2-2--|
|---------------2-|-(2)-2-2-2-2-2-2-2-|---------------2-|-(2)-2-2-2-2-2-2-2--|
|---------------2-|-(2)-2-2-2-2-2-2-2-|---------------2-|-(2)-2-2-2-2-2-2-2--|
|---------------0-|-(0)-0-0-0-0-0-0-0-|---------------0-|-(0)-0-0-0-0-0-0-0--|
|-5-5-5-5-5-5-5---|-------------------|-5-5-5-5-5-5-5---|--------------------|
|-3-3-3-3-3-3-3---|-------------------|-3-3-3-3-3-3-3---|--------------------|


  B5                        D
  E E E E E E E E   E E E E E E E E
|-----------------|-----------------|
|-7-7-7-7-7-7-7-7-|-7-7-7-7-7-7-7-7-|
|-----------------|-----------------|
|-----------------|-----------------|
|-----------------|-----------------|
|-----------------|-----------------|
|
| E E E E E E E E   E E E E E E E E
|-----------------|-----------------|
|-----------------|-----------------|
|-----------------|-----------------|
|-4-4-4-4-4-4-4-4-|-4-4-4-4-4-4-4-4-|
|-2-2-2-2-2-2-2-2-|-2-2-2-2-5-5-5-5-|
|-----------------|-----------------|


  B5     Bm    B5       Bm7               B5
    E  E  E  E  E  E  E  E    E   E  E  E  E  E  E  E
|--------------------------|---------------------------|
|-/12-12-12-12-12-12-12-12-|-12--12-12-12-12-12-12-12--|
|--------------------------|---------------------------|
|--------------------------|---------------------------|
|--------------------------|---------------------------|
|--------------------------|---------------------------|
|
|   E  E  E  E  E  E  E  E   +E   E  E  E  E  E  E  E
|--------------------------|---------------------------|
|---------3----------------|---------------------------|
|---------4-----4--------2-|-(2)--2--2--2--4--4--4--4--|
|---4--4--4-----4--4--4--4-|-(4)--4--4--4--4--4--4--4--|
|---2--2--2-----2--2--2--2-|-(2)--2--2--2--2--2--2--2--|
|--------------------------|---------------------------|


  Gadd9                Dmaj7
   E  E  E  E  E  E  E  E    E   E  E  E  E  E  E  E
|-------------------------|--------------------------|
|-10-10-10-10-10-10-10-10-|-10--10-10-10-10-10-10-10-|
|-------------------------|--------------------------|
|-------------------------|--------------------------|
|-------------------------|--------------------------|
|-------------------------|--------------------------|
|
|  E  E  E  E  E  E  E  E   +E   E  E  E  E  E  E  E
|-----------------------2-|-(2)--2--2--2--2--2--2--2-|
|-----------------------2-|-(2)--2--2--2--2--2--2--2-|
|-----------------------2-|-(2)--2--2--2--2--2--2--2-|
|-----------------------0-|-(0)--0--0--0--0--0--0--0-|
|--5--5--5--5--5--5--5----|--------------------------|
|--3--3--3--3--3--3--3----|--------------------------|


  G             Dmaj7
  E E E E E E E E    E  E E E E E E E
|-----------------|--------------------|
|-8-8-8-8-8-8-8-8-|--8--8-8-8-8-8-8-8--|
|-----------------|--------------------|
|-----------------|--------------------|
|-----------------|--------------------|
|-----------------|--------------------|
|
| E E E E E E E E   +E  E E E E E E E
|---------------2-|-(2)-2-2-2-2-2-2-2--|
|---------------2-|-(2)-2-2-2-2-2-2-2--|
|---------------2-|-(2)-2-2-2-2-2-2-2--|
|---------------0-|-(0)-0-0-0-0-0-0-0--|
|-5-5-5-5-5-5-5---|--------------------|
|-3-3-3-3-3-3-3---|--------------------|


   Pre Chorus 1
    Slower Q=140
    Bm                                 D
     E  E  E  E  E  E  E  E    E  E  E   E  E  E  E  E
||--------------------------|---------------------------|
||o--7--7--7--7--7--7--7--7-|--7--7--7---7--7--7--7--7--|
||--------------------------|---------------------------|
||--------------------------|---------------------------|
||o-------------------------|---------------------------|
||--------------------------|---------------------------|
|
|    E  E  E  E  E  E  E  E    E  E  E   E  E  E  E  E
||--------------------------|---------------------------|
||o-------------------------|---------------------------|
||--------------------------|---------------------------|
||--12-12-12-12-12-12-12-12-|-12-12-12-/19-19-19-19-19\-|
||o-------------------------|---------------------------|
||--------------------------|---------------------------|


  Dmaj7                              Dadd4
   E  E  E  E  E  E  E  E    E  E  E   E  E  E  E  E
|-------------------------|---------------------------|
|-------------------------|---------------------------|
|--7--7--7--7--7--7--7--7-|--7--7--7---7--7--7--7--7--|
|-------------------------|---------------------------|
|-------------------------|---------------------------|
|-------------------------|---------------------------|
|
|  E  E  E  E  E  E  E  E    E  E  E   E  E  E  E  E
|-------------------------|---------------------------|
|-------------------------|---------------------------|
|-------------------------|---------------------------|
|-11-11-11-11-11-11-11-11-|-11-11-11-/17-17-17-17-17\-|
|-------------------------|---------------------------|
|-------------------------|---------------------------|


  Gmaj7         D
  E E E E E E E E   E E E E E E E E
|-----------------|-----------------|
|-7-7-7-7-7-7-7-7-|-7-7-7-7-7-7-7-7-|
|-----------------|-----------------|
|-----------------|-----------------|
|-----------------|-----------------|
|-----------------|-----------------|
|
| E E E E E E E E   E E E E E E E E
|-----------------|-----------------|
|-----------------|-----------------|
|-----------------|-----------------|
|-9-9-9-9-9-9-9-9-|-9-9-9-9-9-9-9-9-|
|-----------------|-----------------|
|-----------------|-----------------|


  Gmaj7                Dadd4
   E  E  E  E  E  E  E  E    E  E  E  E  E  E  E  E
|-------------------------|---------------------------||
|--8--8--8--8--8--8--8--8-|--8--8--8--8--8--8--8--8--o||
|-------------------------|---------------------------||
|-------------------------|---------------------------||
|-------------------------|--------------------------o||
|-------------------------|---------------------------||
|
|  E  E  E  E  E  E  E  E    E  E  E  E  E  E  E  E
|-------------------------|---------------------------||
|-------------------------|-12-12-12-12-12-12-12-12--o||
|-11-11-11-11-11-11-11-11-|---------------------------||
|-------------------------|---------------------------||
|-------------------------|--------------------------o||
|-------------------------|---------------------------||


   Chorus
    E6                                  Bsus2
    E E E E E E E E   E E E E E E E E   E E E E E E E E   E E E E E E E E  3x
||------------------|-----------------|-----------------|------------------||
||o-----------------|-----------------|-----------------|-----------------o||
||--6-6-6-6-6-6-6-6-|-6-6-6-6-6-6-6-6-|-6-6-6-6-6-6-6-6-|-6-6-6-6-6-6-6-6--||
||--9-9-9-9-9-9-9-9-|-9-9-9-9-9-9-9-9-|-9-9-9-9-9-9-9-9-|-9-9-9-9-9-9-9-9--||
||o-----------------|-----------------|-----------------|-----------------o||
||------------------|-----------------|-----------------|------------------||
|
|   E E E E E E E E   E E E E E E E E   E E E E E E E E   E E E E E E E E  3x
||------------------|-----------------|-----------------|---------7-7-7----||
||o-----------------|-----------------|-----------------|---------9-9-9---o||
||------------------|-----------------|-6-6-6-6-6-6-6-6-|-6-6-6-6-6-6-6-6--||
||--9-9-9-9-9-9-9-9-|-9-9-9-9-9-9-9-9-|-9-9-9-9-9-9-9-9-|-9-9-9-9-9-9-9-9--||
||o-7-7-7-7-7-7-7-7-|-7-7-7-7-7-7-7-7-|-----------------|-----------------o||
||------------------|-----------------|-----------------|------------------||


    Emaj7                               B                 Ebm6
    E E E E E E E E   E E E E E E E E   E E E E E E E E   E E E E E E E E
||------------------|-----------------|-----------------|------------------||
||o-----------------|-----------------|-----------------|-----------------o||
||--8-8-8-8-8-8-8-8-|-8-8-8-8-8-8-8-8-|-8-8-8-8-8-8-8-8-|-8-8-8-8-8-8-8-8--||
||--9-9-9-9-9-9-9-9-|-9-9-9-9-9-9-9-9-|-9-9-9-9-9-9-9-9-|-9-9-9-9-9-9-9-9--||
||o-7-7-7-7-7-7-7-7-|-7-7-7-7-7-7-7-7-|-----------------|-6-6-6-6-6-6-6-6-o||
||------------------|-----------------|-7-7-7-7-7-7-7-7-|------------------||
|
|   E E E E E E E E   E E E E E E E E   E E E E E E E E   E E E E E E E E
||------------------|-----------------|-----------------|------------------||
||o-----------------|-----------------|-----------------|-----------------o||
||--8-8-8-8-8-8-8-8-|-8-8-8-8-8-8-8-8-|-8-8-8-8-8-8-8-8-|-8-8-8-8-8-8-8-8--||
||--9-9-9-9-9-9-9-9-|-9-9-9-9-9-9-9-9-|-9-9-9-9-9-9-9-9-|-9-9-9-9-9-9-9-9--||
||o-7-7-7-7-7-7-7-7-|-7-7-7-7-7-7-7-7-|-----------------|-6-6-6-6-6-6-6-6-o||
||------------------|-----------------|-7-7-7-7-7-7-7-7-|------------------||


  E E H.        W
|-------------|-----------------|
|-------------|-----------------|
|-8-----------|-----------------|
|-9-----------|-----------------|
|-6-----------|-----------------|
|-------------|-----------------|
|
| E E H.        E E E E E E Q
|-------------|-----------------|
|-------------|-----------------|
|-8-----------|-8-8-8-8-8-8-8\--|
|-9-----------|-9-9-9-9-9-9-9\--|
|-6-----------|-6-6-6-6-6-6-6\--|
|-------------|-----------------|


 Verse 2
  B5                        D         B5            Bm7           B5
 4/4
  Gtr I
  E E E E E E E E   E E E E E E E E   E E E E E E E E    E  E E E E E E E
|-----------------|-----------------|-----------------|-------------------|
|-----------------|-----------------|-----------------|-------------------|
|-----------------|-----------------|-4-4-4-4-4-4-4-4-|--4--4-4-4-4-4-4-4-|
|-4-4-4-4-4-4-4-4-|-4-4-4-4-4-4-4-4-|-----------------|-------------------|
|-2-2-2-2-2-2-2-2-|-2-2-2-2-5-5-5-5-|-----------------|-------------------|
|-----------------|-----------------|-----------------|-------------------|
|
| Gtr II
| E E E E E E E E   E E E E E E E E   E E E E E E E E   +E  E E E E E E E
|-----------------|-----------------|-----------------|-------------------|
|-----------------|-----------------|-----------------|-------------------|
|-----------------|-----------------|---------------2-|-(2)-2-2-2-4-4-4-4-|
|-4-4-4-4-4-4-4-4-|-4-4-4-4-4-4-4-4-|-4-4-4-4-4-4-4-4-|-(4)-4-4-4-4-4-4-4-|
|-2-2-2-2-2-2-2-2-|-2-2-2-2-5-5-5-5-|-2-2-2-2-2-2-2-2-|-(2)-2-2-2-2-2-2-2-|
|-----------------|-----------------|-----------------|-------------------|


  Gadd9         Dmaj7                   G             Dmaj7
  E E E E E E E E    E  E E E E E E E   E E E E E E E E    E  E E E E E E E
|-----------------|-------------------|-----------------|--------------------|
|-----------------|-------------------|-----------------|--------------------|
|-2-2-2-2-2-2-2-2-|--2--2-2-2-2-2-2-2-|-4-4-4-4-4-4-4-4-|--4--4-4-4-4-4-4-4--|
|-----------------|-------------------|-----------------|--------------------|
|-----------------|-------------------|-----------------|--------------------|
|-----------------|-------------------|-----------------|--------------------|
|
| E E E E E E E E   +E  E E E E E E E   E E E E E E E E   +E  E E E E E E E
|---------------2-|-(2)-2-2-2-2-2-2-2-|---------------2-|-(2)-2-2-2-2-2-2-2--|
|---------------2-|-(2)-2-2-2-2-2-2-2-|---------------2-|-(2)-2-2-2-2-2-2-2--|
|---------------2-|-(2)-2-2-2-2-2-2-2-|---------------2-|-(2)-2-2-2-2-2-2-2--|
|---------------0-|-(0)-0-0-0-0-0-0-0-|---------------0-|-(0)-0-0-0-0-0-0-0--|
|-5-5-5-5-5-5-5---|-------------------|-5-5-5-5-5-5-5---|--------------------|
|-3-3-3-3-3-3-3---|-------------------|-3-3-3-3-3-3-3---|--------------------|


  B5                        D
  E E E E E E E E   E E E E E E E E
|-----------------|-----------------|
|-7-7-7-7-7-7-7-7-|-7-7-7-7-7-7-7-7-|
|-----------------|-----------------|
|-----------------|-----------------|
|-----------------|-----------------|
|-----------------|-----------------|
|
| E E E E E E E E   E E E E E E E E
|-----------------|-----------------|
|-----------------|-----------------|
|-----------------|-----------------|
|-4-4-4-4-4-4-4-4-|-4-4-4-4-4-4-4-4-|
|-2-2-2-2-2-2-2-2-|-2-2-2-2-5-5-5-5-|
|-----------------|-----------------|


  B5                    Bm7               B5
    E  E  E  E  E  E  E  E    E   E  E  E  E  E  E  E
|--------------------------|---------------------------|
|-/12-12-12-12-12-12-12-12-|-12--12-12-12-12-12-12-12--|
|--------------------------|---------------------------|
|--------------------------|---------------------------|
|--------------------------|---------------------------|
|--------------------------|---------------------------|
|
|   E  E  Q     E  E  E  E   +E   E  E  E  E  E  E  E
|--------------------------|---------------------------|
|--------------------------|---------------------------|
|---------4--------------2-|-(2)--2--2--2--4--4--4--4--|
|---4--4--4-----4--4--4--4-|-(4)--4--4--4--4--4--4--4--|
|---2--2--2-----2--2--2--2-|-(2)--2--2--2--2--2--2--2--|
|--------------------------|---------------------------|


  Gadd9                Dmaj7
   E  E  E  E  E  E  E  E    E   E  E  E  E  E  E  E
|-------------------------|--------------------------|
|-10-10-10-10-10-10-10-10-|-10--10-10-10-10-10-10-10-|
|-------------------------|--------------------------|
|-------------------------|--------------------------|
|-------------------------|--------------------------|
|-------------------------|--------------------------|
|
|  E  E  E  E  E  E  E  E   +E   E  E  E  E  E  E  E
|-----------------------2-|-(2)--2--2--2--2--2--2--2-|
|-----------------------2-|-(2)--2--2--2--2--2--2--2-|
|-----------------------2-|-(2)--2--2--2--2--2--2--2-|
|-----------------------0-|-(0)--0--0--0--0--0--0--0-|
|--5--5--5--5--5--5--5----|--------------------------|
|--3--3--3--3--3--3--3----|--------------------------|


  G             Dmaj7
  E E E E E E E E    E  E E E E E E E
|-----------------|--------------------|
|-8-8-8-8-8-8-8-8-|--8--8-8-8-8-8-8-8--|
|-----------------|--------------------|
|-----------------|--------------------|
|-----------------|--------------------|
|-----------------|--------------------|
|
| E E E E E E E E   +E  E E E E E E E
|---------------2-|-(2)-2-2-2-2-2-2-2--|
|---------------2-|-(2)-2-2-2-2-2-2-2--|
|---------------2-|-(2)-2-2-2-2-2-2-2--|
|---------------0-|-(0)-0-0-0-0-0-0-0--|
|-5-5-5-5-5-5-5---|--------------------|
|-3-3-3-3-3-3-3---|--------------------|


   Pre Chorus 2
    Bm                                 D
     E  E  E  E  E  E  E  E    E  E  E   E  E  E  E  E
||--------------------------|---------------------------|
||o--7--7--7--7--7--7--7--7-|--7--7--7---7--7--7--7--7--|
||--------------------------|---------------------------|
||--------------------------|---------------------------|
||o-------------------------|---------------------------|
||--------------------------|---------------------------|
|
|    E  E  E  E  E  E  E  E    E  E  E   E  E  E  E  E
||--------------------------|---------------------------|
||o-------------------------|---------------------------|
||--------------------------|---------------------------|
||--12-12-12-12-12-12-12-12-|-12-12-12-/19-19-19-19-19\-|
||o-------------------------|---------------------------|
||--------------------------|---------------------------|


  Dmaj7                              Dadd4
   E  E  E  E  E  E  E  E    E  E  E   E  E  E  E  E
|-------------------------|---------------------------|
|-------------------------|---------------------------|
|--7--7--7--7--7--7--7--7-|--7--7--7---7--7--7--7--7--|
|-------------------------|---------------------------|
|-------------------------|---------------------------|
|-------------------------|---------------------------|
|
|  E  E  E  E  E  E  E  E    E  E  E   E  E  E  E  E
|-------------------------|---------------------------|
|-------------------------|---------------------------|
|-------------------------|---------------------------|
|-11-11-11-11-11-11-11-11-|-11-11-11-/17-17-17-17-17\-|
|-------------------------|---------------------------|
|-------------------------|---------------------------|


  Gmaj7         D
  E E E E E E E E   E E E E E E E E
|-----------------|-----------------|
|-7-7-7-7-7-7-7-7-|-7-7-7-7-7-7-7-7-|
|-----------------|-----------------|
|-----------------|-----------------|
|-----------------|-----------------|
|-----------------|-----------------|
|
| E E E E E E E E   E E E E E E E E
|-----------------|-----------------|
|-----------------|-----------------|
|-----------------|-----------------|
|-9-9-9-9-9-9-9-9-|-9-9-9-9-9-9-9-9-|
|-----------------|-----------------|
|-----------------|-----------------|


  Gmaj7                Dadd4
   E  E  E  E  E  E  E  E    E  E  E  E  E  E  E  E
|-------------------------|---------------------------||
|--8--8--8--8--8--8--8--8-|--8--8--8--8--8--8--8--8--o||
|-------------------------|---------------------------||
|-------------------------|---------------------------||
|-------------------------|--------------------------o||
|-------------------------|---------------------------||
|
|  E  E  E  E  E  E  E  E    E  E  E  E  E  E  E  E
|-------------------------|---------------------------||
|-------------------------|-12-12-12-12-12-12-12-12--o||
|-11-11-11-11-11-11-11-11-|---------------------------||
|-------------------------|---------------------------||
|-------------------------|--------------------------o||
|-------------------------|---------------------------||

[ Tab from: http://www.guitartabs.cc/tabs/i/interpol/pda_tab.html ]
 Chorus 2
  E5                                  B7sus2
  E E E E E E E E   E E E E E E E E   E E E E E E E E    E  E E E E E E E
|-----------------|-----------------|-----------------|--------------------|
|-----------------|-----------------|-----------------|--------------------|
|-----------------|-----------------|-6-6-6-6-6-6-6-6-|--6--6-6-6-6-6-6-6--|
|-9-9-9-9-9-9-9-9-|-9-9-9-9-9-9-9-9-|-9-9-9-9-9-9-9-9-|--9--9-9-9-9-9-9-9--|
|-7-7-7-7-7-7-7-7-|-7-7-7-7-7-7-7-7-|-----------------|--------------------|
|-----------------|-----------------|-----------------|--------------------|
|
| E E E E E E E E   E E E E E E E E   E E E E E E E E    E  E E E E E E E
|-----------------|-----------------|-----------------|-----------7-7-7----|
|-----------------|-----------------|-----------------|-----------9-9-9----|
|-----------------|-----------------|-6-6-6-6-6-6-6-6-|--6--6-6-6-6-6-6-6--|
|-9-9-9-9-9-9-9-9-|-9-9-9-9-9-9-9-9-|-9-9-9-9-9-9-9-9-|--9--9-9-9-9-9-9-9--|
|-7-7-7-7-7-7-7-7-|-7-7-7-7-7-7-7-7-|-----------------|--------------------|
|-----------------|-----------------|-----------------|--------------------|
|
| Gtr III
| W                 W                 E Q   E E E E E   +E  E E E E E E E
|-----------------|-----------------|-----------------|--------------------|
|-----------------|-----------------|-----------------|--------------------|
|-----------------|-----------------|-----------------|--------------------|
|-----------------|-----------------|---7---7-7-7-7---|--------------------|
|-----------------|-----------------|-0-4---4-4-4-4-0-|-(0)-0-0-0-0-0-0-0--|
|-----------------|-----------------|-----------------|--------------------|


  E6                                  B7sus2
  E E E E E E E E   E E E E E E E E   E E E E E E E E    E  E E E E E E E
|-----------------|-----------------|-----------------|--------------------|
|-----------------|-----------------|-----------------|--------------------|
|-6-6-6-6-6-6-6-6-|-6-6-6-6-6-6-6-6-|-6-6-6-6-6-6-6-6-|--6--6-6-6-6-6-6-6--|
|-9-9-9-9-9-9-9-9-|-9-9-9-9-9-9-9-9-|-9-9-9-9-9-9-9-9-|--9--9-9-9-9-9-9-9--|
|-----------------|-----------------|-----------------|--------------------|
|-----------------|-----------------|-----------------|--------------------|
|
| E E E E E E E E   E E E E E E E E   E E E E E E E E    E  E E E E E E E
|-----------------|-----------------|-----------------|-----------7-7-7----|
|-----------------|-----------------|-----------------|-----------9-9-9----|
|-----------------|-----------------|-6-6-6-6-6-6-6-6-|--6--6-6-6-6-6-6-6--|
|-9-9-9-9-9-9-9-9-|-9-9-9-9-9-9-9-9-|-9-9-9-9-9-9-9-9-|--9--9-9-9-9-9-9-9--|
|-7-7-7-7-7-7-7-7-|-7-7-7-7-7-7-7-7-|-----------------|--------------------|
|-----------------|-----------------|-----------------|--------------------|
|
| W                 W                 E Q   E E E E E   +E  E E E E E E E
|-----------------|-----------------|-----------------|--------------------|
|-----------------|-----------------|-----------------|--------------------|
|-----------------|-----------------|-----------------|--------------------|
|-----------------|-----------------|---7---7-7-7-----|--------------------|
|-----------------|-----------------|-0-4---4-4-4-0-0-|-(0)-0-0-0-0-0-0-0--|
|-----------------|-----------------|-----------------|--------------------|


  E6                                  B7sus2
  E E E E E E E E   E E E E E E E E   E E E E E E E E   E E E E E E E E
|-----------------|-----------------|-----------------|------------------|
|-----------------|-----------------|-----------------|------------------|
|-9-6-6-6-6-6-6-6-|-6-6-6-6-6-6-6-6-|-6-6-6-6-6-6-6-6-|-6-6-6-6-6-6-6-6--|
|-9-9-9-9-9-9-9-9-|-9-9-9-9-9-9-9-9-|-9-9-9-9-9-9-9-9-|-9-9-9-9-9-9-9-9--|
|-----------------|-----------------|-----------------|------------------|
|-----------------|-----------------|-----------------|------------------|
|
| E E E E E E E E   E E E E E E E E   E E E E E E E E   E E E E E E E E
|-----------------|-----------------|-----------------|---------7-7-7----|
|-----------------|-----------------|-----------------|---------9-9-9----|
|-----------------|-----------------|-6-6-6-6-6-6-6-6-|-6-6-6-6-6-6-6-6--|
|-9-9-9-9-9-9-9-9-|-9-9-9-9-9-9-9-9-|-9-9-9-9-9-9-9-9-|-9-9-9-9-9-9-9-9--|
|-7-7-7-7-7-7-7-7-|-7-7-7-7-7-7-7-7-|-----------------|------------------|
|-----------------|-----------------|-----------------|------------------|
|
| W                 W                 E Q   E E E E E   E E E E E E E E
|-----------------|-----------------|-----------------|------------------|
|-----------------|-----------------|-----------------|------------------|
|-----------------|-----------------|-----------------|------------------|
|-----------------|-----------------|-7-7---7-7-7-7-7-|-7-7-7-7-7-7-7-7--|
|-----------------|-----------------|-4-4---4-4-4-4-4-|-4-4-4-4-4-4-4-4--|
|-----------------|-----------------|-----------------|------------------|


    Emaj7                               B                 Ebm6
    E E E E E E E E   E E E E E E E E   E E E E E E E E   E E E E E E E E
||------------------|-----------------|-----------------|------------------||
||o-----------------|-----------------|-----------------|-----------------o||
||--8-8-8-8-8-8-8-8-|-8-8-8-8-8-8-8-8-|-8-8-8-8-8-8-8-8-|-8-8-8-8-8-8-8-8--||
||--9-9-9-9-9-9-9-9-|-9-9-9-9-9-9-9-9-|-9-9-9-9-9-9-9-9-|-9-9-9-9-9-9-9-9--||
||o-7-7-7-7-7-7-7-7-|-7-7-7-7-7-7-7-7-|-----------------|-6-6-6-6-6-6-6-6-o||
||------------------|-----------------|-7-7-7-7-7-7-7-7-|------------------||
|
|   E E E E E E E E   E E E E E E E E   E E E E E E E E   E E E E E E E E
||------------------|-----------------|-----------------|------------------||
||o-----------------|-----------------|-----------------|-----------------o||
||--8-8-8-8-8-8-8-8-|-8-8-8-8-8-8-8-8-|-8-8-8-8-8-8-8-8-|-8-8-8-8-8-8-8-8--||
||--9-9-9-9-9-9-9-9-|-9-9-9-9-9-9-9-9-|-9-9-9-9-9-9-9-9-|-9-9-9-9-9-9-9-9--||
||o-7-7-7-7-7-7-7-7-|-7-7-7-7-7-7-7-7-|-----------------|-6-6-6-6-6-6-6-6-o||
||------------------|-----------------|-7-7-7-7-7-7-7-7-|------------------||


 Interlude
      N.C.
  E E H.             W                 W                 W
|------------------|-----------------|-----------------|------------------|
|------------------|-----------------|-----------------|------------------|
|-8----------------|-----------------|-----------------|------------------|
|-9----------------|-----------------|-----------------|------------------|
|-6----------------|-----------------|-----------------|------------------|
|------------------|-----------------|-----------------|------------------|
|
| E E E  E E E E E   E E E E E E E E   E E E E E E E E   E E E E E E E E
|------------------|-----------------|-----------------|------------------|
|------------------|-----------------|-----------------|------------------|
|-8-8-8--8-8-8-8-8-|-8-8-8-8-8-8-8-8-|-8-8-8-8-8-8-8-8-|-8-8-8-8-8-8-8-8--|
|------------------|-----------------|-----------------|------------------|
|------------------|-----------------|-----------------|------------------|
|------------------|-----------------|-----------------|------------------|


  Slower Q=138
  B                 Emaj7
  Gtr II
  E E E E E E E E   E E E E E E E E
|-----------------|-----------------|
|-----------------|-----------------|
|-8-8-8-8-8-8-8-8-|-8-8-8-8-8-8-8-8-|
|-9-9-9-9-9-9-9-9-|-9-9-9-9-9-9-9-9-|
|-----------------|-7-7-7-7-7-7-7-7-|
|-----------------|-----------------|


   Bass Solo
    Emaj7                               B                 Emaj7
    E E E E E E E E   E E E E E E E E   E E E E E E E E   E E E E E E E E  3x
||------------------|-----------------|-----------------|------------------||
||o-9-9-9-9-9-9-9-9-|-9-9-9-9-9-9-9-9-|-7-7-7-7-7-7-7-7-|-----------------o||
||--8-8-8-8-8-8-8-8-|-8-8-8-8-8-8-8-8-|-8-8-8-8-8-8-8-8-|-8-8-8-8-8-8-8-8--||
||------------------|-----------------|-9-9-9-9-9-9-9-9-|-9-9-9-9-9-9-9-9--||
||o-----------------|-----------------|-----------------|-7-7-7-7-7-7-7-7-o||
||------------------|-----------------|-----------------|------------------||


  Emaj7                               B                 Emaj7
  Gtr I
  W                 W                 E E E E E E E E   E E E E E E E E
|-----------------|-----------------|-----------------|------------------|
|-----------------|-----------------|-----------------|------------------|
|-----------------|-----------------|-----8-8-----8---|-----8-8-----8----|
|-----------------|-----------------|-9-9-----9-9---9-|-9-9-----9-9---9--|
|-----------------|-----------------|-----------------|------------------|
|-----------------|-----------------|-----------------|------------------|
|
| Gtr II
| E E E E E E E E   E E E E E E E E   E E E E E E E E   E E E E E E E E
|-----------------|-----------------|-----------------|------------------|
|-9-9-9-9-9-9-9-9-|-9-9-9-9-9-9-9-9-|-7-7-7-7-7-7-7-7-|------------------|
|-8-8-8-8-8-8-8-8-|-8-8-8-8-8-8-8-8-|-8-8-8-8-8-8-8-8-|-8-8-8-8-8-8-8-8--|
|-----------------|-----------------|-9-9-9-9-9-9-9-9-|-9-9-9-9-9-9-9-9--|
|-----------------|-----------------|-----------------|-7-7-7-7-7-7-7-7--|
|-----------------|-----------------|-----------------|------------------|


  Emaj7                               B                 Emaj7
  E E E E E E E E   E E E E E E E E   E E E E E E E E   +E  E E E E E E E
|-----------------|-----------------|-----------------|--------------------|
|-----------------|-----------------|-----------------|--------------------|
|-----8-8-----8---|-----8-8-----8---|-----8-8-----8---|-------8-8-----8-8--|
|-9-9-----9-9---9-|-9-9-----9-9---9-|-9-9-----9-9---9-|-(9)-9-----9-9------|
|-----------------|-----------------|-----------------|--------------------|
|-----------------|-----------------|-----------------|--------------------|
|
| E E E E E E E E   E E E E E E E E   E E E E E E E E    E  E E E E E E E
|-----------------|-----------------|-----------------|--------------------|
|-9-9-9-9-9-9-9-9-|-9-9-9-9-9-9-9-9-|-7-7-7-7-7-7-7-7-|--------------------|
|-8-8-8-8-8-8-8-8-|-8-8-8-8-8-8-8-8-|-8-8-8-8-8-8-8-8-|--8--8-8-8-8-8-8-8--|
|-----------------|-----------------|-9-9-9-9-9-9-9-9-|--9--9-9-9-9-9-9-9--|
|-----------------|-----------------|-----------------|--7--7-7-7-7-7-7-7--|
|-----------------|-----------------|-----------------|--------------------|


 Outro
  Slower Q=136
  Emaj7                       Emaj9     B                 Emaj7     Emaj9
  E E E E E E E E   +E  E E E E E E E   E E E E E E E E   +E  E E E E E E E
|-----------------|-------------------|-----------------|--------------------|
|-----------------|----------7-------|-----------------|-----------7--------|
|-----8-8-----8---|------8-----8---8-|-----8-8-----8---|-------8-----8---8--|
|-9-9-----9-9---9-|(9)-9---9-----9---|-9-9-----9-9---9-|-(9)-9---9-----9----|
|-----------------|------------------|-----------------|--------------------|
|-----------------|------------------|-----------------|--------------------|
|
| E E E E E E E E   E  E E E E E E E   E E E E E E E E    E  E E E E E E E
|-----------------|------------------|-----------------|--------------------|
|-9-9-9-9-9-9-9-9-|-9--9-9-9-9-9-9-9-|-7-7-7-7-7-7-7-7-|--9--9-9-9-9-9-9-9--|
|-8-8-8-8-8-8-8-8-|-8--8-8-8-8-8-8-8-|-8-8-8-8-8-8-8-8-|--8--8-8-8-8-8-8-8--|
|-----------------|------------------|-----------------|--------------------|
|-----------------|------------------|-----------------|--------------------|
|-----------------|------------------|-----------------|--------------------|


  Emaj7/G#                            B             Emaj7
  E E E E E E E E   E E E E E E E E   E E E E E E E E   E E E E E E E E
|-----------------|-----------------|-----------------|------------------|
|-----------------|-----------------|-----------------|------------------|
|-----8-8-----8---|---8-8-8-8-8-8-8-|-8---8---8---8---|-8---8---8---8----|
|-9-9-----9-9---9-|-9---------------|---9---9---9---9-|---9---9---9---9--|
|-----------------|-----------------|-----------------|------------------|
|-----------------|-----------------|-----------------|------------------|
|
| E E E E E E E E   E E E E E E E E   E E E E E E E E   E E E E E E E E
|-----------------|-----------------|-----------------|------------------|
|-9-9-9-9-9-9-9-9-|-9-9-9-9-9-9-9-9-|-7-7-7-7-7-7-7-7-|-9-9-9-9-9-9-9-9--|
|-8-8-8-8-8-8-8-8-|-8-8-8-8-8-8-8-8-|-8-8-8-8-8-8-8-8-|-8-8-8-8-8-8-8-8--|
|-----------------|-----------------|-----------------|------------------|
|-----------------|-----------------|-----------------|------------------|
|-----------------|-----------------|-----------------|------------------|


  Emaj7                               B                 Emaj7     Emaj9
  E E E E E E E E   E E E E E E E E   E E E E E E E E   +E  E E E E E E E
|-----------------|-----------------|-----------------|--------------------|
|-----------------|-----------------|-----------------|-----------7--------|
|-8---8---8---8---|-8---8---8---8---|-----8-8-----8---|-------8-----8---8--|
|---9---9---9---9-|---9---9---9---9-|-9-9-----9-9---9-|-(9)-9---9-----9----|
|-----------------|-----------------|-----------------|--------------------|
|-----------------|-----------------|-----------------|--------------------|
|
| E E E E E E E E   E E E E E E E E   E E E E E E E E    E  E E E E E E E
|-----------------|-----------------|-----------------|--------------------|
|-9-9-9-9-9-9-9-9-|-9-9-9-9-9-9-9-9-|-7-7-7-7-7-7-7-7-|--9--9-9-9-9-9-9-9--|
|-8-8-8-8-8-8-8-8-|-8-8-8-8-8-8-8-8-|-8-8-8-8-8-8-8-8-|--8--8-8-8-8-8-8-8--|
|-----------------|-----------------|-----------------|--------------------|
|-----------------|-----------------|-----------------|--------------------|
|-----------------|-----------------|-----------------|--------------------|


  Emaj7/G#                  Emaj9     B             Emaj7     Emaj9
  E E E E E E E E   E E E E E E E E   E E E E E E E E   E E E E E E E E
|-----------------|-----------------|-----------------|------------------|
|-----------------|---------7-------|-----------------|-------7----------|
|-----8-8-----8---|---8-8-----8---8-|-----8-8-----8---|-8-8-----8-----8--|
|-9-9-----9-9---9-|-9-----9-----9---|-9-9-----9-9---9-|-----9-----9-9----|
|-----------------|-----------------|-----------------|------------------|
|-----------------|-----------------|-----------------|------------------|
|
| E E E E E E E E   E E E E E E E E   E E E E E E E E   E E E E E E E E
|-----------------|-----------------|-----------------|------------------|
|-9-9-9-9-9-9-9-9-|-9-9-9-9-9-9-9-9-|-7-7-7-7-7-7-7-7-|-9-9-9-9-9-9-9-9--|
|-8-8-8-8-8-8-8-8-|-8-8-8-8-8-8-8-8-|-8-8-8-8-8-8-8-8-|-8-8-8-8-8-8-8-8--|
|-----------------|-----------------|-----------------|------------------|
|-----------------|-----------------|-----------------|------------------|
|-----------------|-----------------|-----------------|------------------|


  Emaj7                               B                 Emaj7
  E E E E E E E E   E E E E E E E E   E E E E E E E E   E E E E E E E E
|-----------------|-----------------|-----------------|------------------|
|-----------------|-----------------|-----------------|------------------|
|-8-8-8-8-8-8-8-8-|-8-8-8-8-8-8-8-8-|-8-8-8-8-8-8-8-8-|-8-8-8-8-8-8-8-8--|
|-9-9-9-9-9-9-9-9-|-9-9-9-9-9-9-9-9-|-9-9-9-9-9-9-9-9-|-9-9-9-9-9-9-9-9--|
|-----------------|-----------------|-----------------|------------------|
|-----------------|-----------------|-----------------|------------------|
|
| E E E E E E E E   E E E E E E E E   E E E E E E E E   E E E E E E E E
|-----------------|-----------------|-----------------|------------------|
|-9-9-9-9-9-9-9-9-|-9-9-9-9-9-9-9-9-|-7-7-7-7-7-7-7-7-|-9-9-9-9-9-9-9-9--|
|-8-8-8-8-8-8-8-8-|-8-8-8-8-8-8-8-8-|-8-8-8-8-8-8-8-8-|-8-8-8-8-8-8-8-8--|
|-----------------|-----------------|-----------------|------------------|
|-----------------|-----------------|-----------------|------------------|
|-----------------|-----------------|-----------------|------------------|


  Emaj7/G#                            B             Emaj7
  E E E E E E E E   E E E E E E E E   E E E E E E E E   E E E E E E E E
|-----------------|-----------------|-----------------|------------------|
|-----------------|-----------------|-----------------|------------------|
|-8-8-8-8-8-8-8-8-|-8-8-8-8-8-8-8-8-|-8-8-8-8-8-8-8-8-|-8-8-8-8-8-8-8-8--|
|-9-9-9-9-9-9-9-9-|-9-9-9-9-9-9-9-9-|-9-9-9-9-9-9-9-9-|-9-9-9-9-9-9-9-9--|
|-----------------|-----------------|-----------------|------------------|
|-----------------|-----------------|-----------------|------------------|
|
| E E E E E E E E   E E E E E E E E   E E E E E E E E   E E E E E E E E
|-----------------|-----------------|-----------------|------------------|
|-9-9-9-9-9-9-9-9-|-9-9-9-9-9-9-9-9-|-7-7-7-7-7-7-7-7-|-9-9-9-9-9-9-9-9--|
|-8-8-8-8-8-8-8-8-|-8-8-8-8-8-8-8-8-|-8-8-8-8-8-8-8-8-|-8-8-8-8-8-8-8-8--|
|-----------------|-----------------|-----------------|------------------|
|-----------------|-----------------|-----------------|------------------|
|-----------------|-----------------|-----------------|------------------|


  Emaj7                                 B                 Emaj7   Emaj9
  E E E E E E E E    E  E E E E E E E   E E E E E E E E   E E E E E E E E
|-----------------|-------------------|-----------------|------------------|
|-----------------|-------------------|-----------------|---------7--------|
|-8-8-8-8-8-8-8-8-|--8--8-8-8-8-8-8-8-|-----8-8-----8---|-----8-----8---8--|
|-9-9-9-9-9-9-9-9-|--9--9-9-9-9-9-9-9-|-9-9-----9-9---9-|-9-9---9-----9----|
|-----------------|-------------------|-----------------|------------------|
|-----------------|-------------------|-----------------|------------------|
|
| E E E Q   Q   E   +E  Q   Q   E E E   E E E E E E E E   E E E E E E E E
|-----------------|-------------------|-----------------|------------------|
|-9-9-9-9---9---9-|-(9)-9---9---9-9-9-|-7-7-7-7-7-7-7-7-|-9-9-9-9-9-9-9-9--|
|-8-8-8-----------|-------------------|-----------------|------------------|
|-----------------|-------------------|-----------------|------------------|
|-----------------|-------------------|-----------------|------------------|
|-----------------|-------------------|-----------------|------------------|


  Emaj7/G#                  Emaj9     B             Emaj7       Emaj9
  E E E E E E E E   E E E E E E E E   E E E E E E E E   E E E E E E E E
|-----------------|-----------------|-----------------|------------------|
|-----------------|---------7-------|-----------------|---------7--------|
|-----8-8-----8---|-----8-----8---8-|-----8-8-----8---|-----8-----8---8--|
|-9-9-----9-9---9-|-9-9---9-----9---|-9-9-----9-9---9-|-9-9---9-----9----|
|-----------------|-----------------|-----------------|------------------|
|-----------------|-----------------|-----------------|------------------|
|
| E E E E E E E E   E E E E E E E E   E E E E E E E E   E E E E E E E E
|-----------------|-----------------|-----------------|------------------|
|-9-9-9-9-9-9-9-9-|-9-9-9-9-9-9-9-9-|-7-7-7-7-7-7-7-7-|-9-9-9-9-9-9-9-9--|
|-----------------|-----------------|-----------------|------------------|
|-----------------|-----------------|-----------------|------------------|
|-----------------|-----------------|-----------------|------------------|
|-----------------|-----------------|-----------------|------------------|


  Emaj7
  W          +W           +W           +W
|----------|------------|------------|--------*|
|-9--------|-(9)--------|-(9)--------|-(9)----*|
|----------|------------|------------|--------*|
|----------|------------|------------|--------*|
|----------|------------|------------|--------*|
|----------|------------|------------|--------*|
|
| W          +W           +W           +W
|----------|------------|------------|--------*|
|-9--------|-(9)--------|-(9)--------|-(9)----*|
|-8--------|-(8)--------|-(8)--------|-(8)----*|
|-9--------|-(9)--------|-(9)--------|-(9)----*|
|-7--------|-(7)--------|-(7)--------|-(7)----*|
|----------|------------|------------|--------*|
Comments