Interpol - Obstacle Chords & Tabs

 

Obstacle Chords & Tabs

Interpol Chords & Tabs

Version: 1 Type: Tab 2 ratings
1 star 2 stars 3 stars 4 stars 5 stars
comments

Obstacle Tab

Artist: Interpol
Song: Obstacle 1


The first guitar comes in with this during the intro. It is also
repeated during the verse:

|------------------------------------------|
|------------------------------------------|
|-8-8-8-8-8--------------------------------|
|-8-8-8-8-8--12-12-12--7-7-7-7-7--12-12-12-|
|-6-6-6-6-6--12-12-12--7-7-7-7-7--12-12-12-|
|------------10-10-10--5-5-5-5-5--10-10-10-|


The second guitar plays the following. I'll let you figure out
when it changes on your own.
[ Tab from: http://www.guitartabs.cc/tabs/i/interpol/obstacle_tab.html ]
|-------|-12-12-|
|-13-13-|-13-13-|
|-14-14-|-------|
|-------|-------|
|-------|-------|
|-------|-------|


At around 3:20, this comes in:

|----------------------------------------------------|
|----------------------------------------------------|
|-7-7-7---10-10-10---12-12---14-14-14-14-14-14-14-14-|
|-7-7-7---10-10-10---12-12---14-14-14-14-14-14-14-14-|
|-5-5-5----8--8--8---10-10---12-12-12-12-12-12-12-12-|
|----------------------------------------------------|



I know I'm missing the chorus and a good chunk of the song but this
is a start at least. If you want to add to it, please do so. If you
have any questions or comments, you can email me at bborred@hotmail.com

Comments