Interpol - Obstacle 1 Chords & Tabs

 

Obstacle 1 Chords & Tabs

Interpol Chords & Tabs

Version: 1 Type: Tab 0 ratings
1 star 2 stars 3 stars 4 stars 5 stars
comments

Obstacle 1 Tab

#-----------------------------------------------------------------------------#
#-- File created with Instab - http://www.pconline.com/~smcarey/instab.html --#
#-----------------------------------------------------------------------------#

Author/Artist: Interpol
Title: Obstacle 1
Album: Turn on the bright lights
Transcribed by: Fraser Douglas
Email: fuzzylogic7@hotmail.com

There are other accurate transcriptions for this song, but I thought id submit t
his anyway.

------------------------------------------------------------------------------
------------------------------------------------------------------------------
------------------------------------------------------------------------------
-10-10-10-10-10-7-7-7-7-7-7-7-7-10-10-10--------------------------------------
-8--8--8--8--8--8-8-8-0-0-0-0-0-0--0--0---------------------------------------
------------------------------------------------------------------------------
 Intro/Verse (Guitar 1)                                                       

-8--8-----8--8-----8--8----8--8--8--8---12-12-12-12---------------------------
-10-10----10-10----10-10---10-10-10-10--13-13-13-13---------------------------
------------------------------------------------------------------------------
------------------------------------------------------------------------------
------------------------------------------------------------------------------
------------------------------------------------------------------------------
 Pre-Chorus (Guitars 1+2 play this syncopated)                                
[ Tab from: http://www.guitartabs.cc/tabs/i/interpol/obstacle_1_tab.html ]
------------------------------------------------------------------------------
------------------------------------------------------------------------------
----------------------------9--9--9--9---9-9---9-9----------------------------
-10-10-10---9---7-7-7---9---10-10-10-10--7-7---9-9----------------------------
-8--8--8----7---0-0-0---7---8--8--8--8---0-0---7-7----------------------------
------------------------------------------------------------------------------
 Chorus (Guitars 1+2) Correct cord procession, listen to CD for the timing.   

------------------------------------------------------------------------------
------------------------------------------------------------------------------
-------------------------7-7-7/10-10-10/14-14-14------------------------------
-10-10-10-10-10-7-7-7---------------------------------------------------------
-8--8--8--8--8--8-8-8----5-5-5/8--8--8-/12-12-12------------------------------
------------------------------------------------------------------------------
 Wee post-chorus thingy.                                                      

----------12----------12------------------------------------------------------
----13----------13----------13----13------------------------------------------
-14----14----14----14----14----14----14---------------------------------------
------------------------------------------------------------------------------
------------------------------------------------------------------------------
------------------------------------------------------------------------------
 Outro.  Thats it.                                                            

Comments