Interpol - Obstacle 1 Chords & Tabs

 

Obstacle 1 Chords & Tabs

Interpol Chords & Tabs

Version: 3 Type: Bass Tab 0 ratings
1 star 2 stars 3 stars 4 stars 5 stars
comments

Obstacle 1 Bass Tab

   
Interpol - Obstable 1
Album: Turn Off The Bright Lights (2002)
Tabbed: Cobain
Tunning: Dropped D

Intro
G |--------------------------------|---------------------17--17--17-|
D |--------------------------------|--------------------------------|
A |--------------------------------|--------------------------------|
D |--------------------------------|--------------------------------|

G |-17--17--17--19------19--19--19-|-19--19--19--17------17--17--17-||
D |--------------------------------|--------------------------------||
A |--------------------------------|--------------------------------||
D |--------------------------------|--------------------------------|| 2x

G |-----17--19--17------17--19--17-|-----17--19--17--19--17--19--17-|
D |-15--------------15-------------|--------------------------------|
A |--------------------------------|--------------------------------|
D |--------------------------------|--------------------------------|

Verse A
G |--------------------------------|--------------------------------||
D |---------10---------------------|--------------------------------||
A |-----8-------8------------------|-0-0-0---0-------3---3---3------||
D |--------------------------------|--------------------------------|| 2x

G |-----------------10--10---------|--------------------------------|
D |---------10---------------------|--------------------------------|
A |----8-------8-------------------|-0-0-0---0-------3---3---3------|
D |--------------------------------|--------------------------------|

G |--------------------------------|--------------------------------||
D |---------10---------------------|--------------------------------||
A |-----8-------8------------------|-0-0-0---0-------3---3---3------||
D |--------------------------------|--------------------------------|| 2x

G |-----------------10--10---------|--------------------------------|
D |---------10---------------------|--------------------------------|
A |----8-------8-------------------|-0-0-0---0-------3---/--(15)----|
D |--------------------------------|--------------------------------|

Pre-Chorus
G |--------------------------------|--------------------------------|
D |---------3---------------3------|---------3---------------3------|
A |--------------------------------|--------------------------------|
D |-----3-------3-------3-------3--|-----3-------3-------3-------3--|

G |--------------------------------|--------------------------------|
D |---------7---------------7------|---------7-------7---7---7------|
A |--------------------------------|-----------------------------7-7|
D |-----7-------7-------7-------7--|-----7-------7------------------|

Chorus
G |--------------------------------|--------------------------------|
D |--------------------------------|--------------------------------|
A |-8---8---8---8-8-8---8---8---8-8|-8---8---8---8---7-7-7---7---7--|
D |--------------------------------|--------------------------------|

G |--------------------------------|--------------------------------|
D |--------------------------------|--------------------------------|
A |-0---0---0---0---0---0---0---0--|-3---3---3---3---3---3----------|
D |--------------------------------|-------------------------0---1--|

G |--------------------------------|--------------------------------|
D |--------------------------------|--------------------------------|
A |--------------------------------|------------------------(7)-----|
D |-3---3-----------3---3----------|-3---3-----------2---2------(5)-|

G |--------------------------------|--------------------------------|
D |--------------------------------|--------------------------------|
A |-0---0---0---0---0---0---0---0--|-3---3---3---3--15--15--15--15-|
D |--------------------------------|--------------------------------|




Instrumental
G |--------------------------------|--------------------------------|
D |--------------------------------|--------------------------------|
A |-----(guitar only)--------------|-0---0---0---0---3---3---3---3--|
D |--------------------------------|--------------------------------|

G |--------------------------------|--------------------------------|
D |---------3---------------3------|--------------------------------|
A |-3------------------------------|-0---0---0---0---3---3---3---3--|
D |----3-------3---3---3--------3--|--------------------------------|

Chorus Fill
G |--------------------------------|--------------------------------|
D |--------------------------------|--------------------------------|
A |-0---0---0---0---0---0---0---0--|-3---3---3---3---3---3---3---3--|
D |--------------------------------|--------------------------------|

Break
G |--------------------------------|--------------------------------|
D |--------------------------------|--------------------------------|
A |--------------------------------|---------------------0---0---0--|
D |--------------------------------|--------------------------------|

G |--------------------------------|--------------------------------|
D |--------------------------------|--------------------------------|
A |-3---3---3---3---3---3---3---3--|-3---3---3---3---3---3---3---3--|
D |
[ Tab from: http://www.guitartabs.cc/tabs/i/interpol/obstacle_1_btab_ver_3.html ]
G |--------------------------------|--------------------------------|
D |--------------------------------|--------------------------------|
A |-0---0---0---0---0---0---0---0--|-0---0---0---0---0---0---0---0--|
D |--------------------------------|--------------------------------|

G |--------------------------------|--------------------------------|
D |--------------------------------|--------------------------------|
A |-3---3---3---3---3---3---3---3--|-3---3---3---3---3---3---3---3--|
D |--------------------------------|--------------------------------|

G |--------------------------------|--------------------------------|
D |-----------------7---7---7---7--|-8---8---8---7---7---7---5---5--|
A |-0---0---0---0------------------|--------------------------------|
D |--------------------------------|--------------------------------|

G |--------------------------------|--------------------------------|
D |--------------------------------|--------------------------------|
A |-8---8---8---8---8---8---8---8--|-8---8---8---8---8---3---3--4-|
D |--------------------------------|--------------------------------|

G |--------------------------------|--------------------------------|
D |--------------------------------|--------------------------------|
A |-5---5---5---5---5---5---5---5--|-5---5---5---5---5--------------|
D |--------------------------------|---------------------0---0---2--|

G |--------------------------------|--------------------------------|
D |--------------------------------|--------------------------------|
A |--------------------------------|---------------------3---3--4-|
D |-3---3---3---3---3---3---3---3--|-3---3---3---3---3--------------|


G |--------------------------------|--------------------------------|
D |--------------------------------|--------------------------------|
A |-5---5---5---5---5---5---5---5--|-3---3---3---3---0-------2------|
D |--------------------------------|--------------------------------|

Outro
G |--------------------------------|--------------------------------|
D |--------------------------------|--------------------------------|
A |-3---3---3---3---3---3---3---3--|-3---3---3---3---3---3---3---3--|
D |--------------------------------|--------------------------------|

G |--------------------------------|--------------------------------|
D |--------------------------------|--------------------------------|
A |-0---0---0---0---0---0---0---0--|-0---0---0---0---0---0---0---0--|
D |--------------------------------|--------------------------------|

G |--------------------------------|--------------------------------|
D |--------------------------------|--------------------------------|
A |-3---3---3---3---3---3---3---3--|-3---3---3---3---3---3---3---3--|
D |--------------------------------|--------------------------------|

G |--------------------------------|--------------------------------|
D |--------------------------------|--------------------------------|
A |-0---0---0---0---0---0---0---0--|-1---1---1---1---0---0----------|
D |--------------------------------|-------------------------5---5--|

G |--------------------------------|--------------------------------|
D |--------------------------------|--------------------------------|
A |--------------------------------|---------------------3---3--4-|
D |-3---3---3---3---3---3---3---3--|-3---3---3---3---3--------------|

G |--------------------------------|--------------------------------|
D |--------------------------------|--------------------------------|
A |-5---5---5---5---5---5---5---5--|-5---5---5---5---5--------------|
D |--------------------------------|---------------------0---0---2--|

G |--------------------------------|--------------------------------|
D |--------------------------------|--------------------------------|
A |--------------------------------|---------------------3---3--4-|
D |-3---3---3---3---3---3---3---3--|-3---3---3---3---3--------------|

G |--------------------------------|-----7--------------------------|
D |--------------------------------|--------------------------------|
A |-5---5---5---5---5---5---5---5--|-5-------5---5---5---5---7---7--|
D |--------------------------------|--------------------------------|

G |--------------------------------|--------------------------------|
D |---------------------10-10-10---|---------------------10-10-10---| 
A |-8---8---8---8---8-----------8-8|-8---8---8---8---8------------8-|
D |--------------------------------|--------------------------------|

G |--------------------------------|--------------------------------|
D |--------------------------------|--------------------------------|
A |-5---5---5---5---5---5---5---5--|-5---5---5---5---7-7-7---7----7-|
D |--------------------------------|--------------------------------|

G |--------------------------------|--------------------------------|
D |---------------------10-10-10---|---------------------10-10-10---| 
A |-8---8---8---8---8-----------8-8|-8---8---8---8---8------------8-|
D |--------------------------------|--------------------------------|

G |--------------------------------|--------------------------------|-----|
D |--------------------------------|--------------------------------|-----|
A |-5---5---5---5---5---5---5---5--|-3---3---3---3---0---0---2---2--|-3---|
D |--------------------------------|--------------------------------|-----|

[00:11] Intro
[00:31] Verse
[00:56] (Rest)
[00:59] Pre-Chorus
[01:07] Chorus
[01:23] Instrumental
[01:31] Verse
[01:56] (Rest)
[02:00] Pre-Chorus
[02:07] Chorus (replace last bar with Chorus Fill)
[02:23] Chorus
[02:39] (Rest)
[02:43] Break
[03:18] Outro (She puts the weight...)
Comments