Interpol - Nyc Chords & Tabs

 

Nyc Chords & Tabs

Interpol Chords & Tabs

Version: 3 Type: Tab 0 ratings
1 star 2 stars 3 stars 4 stars 5 stars
comments

Nyc Tab

   
Band:Interpol
Track:NYC
Album:Turn On The Bright Light
Tabbed By:Tomsk

Guitar 1 (Daniel)

   F                             C
e|-x-x-x-x-x-x-x-x-x-x-x-x-x-x-x-x-x-x-x-x--|
B|-1-1-1-1-1-1-1-1-1-1-1-1-1-1-1-1-1-1-1-1--|
G|-2-2-2-2-2-2-2-2-2-2-2-2-2-2-2-0-0-0-0-0--|
D|-3-3-3-3-3-3-3-3-3-3-3-3-3-3-3-2-2-2-2-2--|
A|-3-3-3-3-3-3-3-3-3-3-3-3-3-3-3-3-3-3-3-3--|
E|------------------------------------------|

Guitar 2 (Paul)
Enters after two bars of first guitarist

   F                             C
e|-1-1-1-1-1-1-1-1-1-1-1-1-1-1-1-0-0-0-0-0--|
B|-1-1-1-1-1-1-1-1-1-1-1-1-1-1-1-1-1-1-1-1--|
G|-2-2-2-2-2-2-2-2-2-2-2-2-2-2-2-0-0-0-0-0--|
D|-3-3-3-3-3-3-3-3-3-3-3-3-3-3-3-2-2-2-2-2--|
A|-3-3-3-3-3-3-3-3-3-3-3-3-3-3-3-3-3-3-3-3--|
E|------------------------------------------|

Nothing exciting happens for a while. Paul has a break for two bars while
Micheal plays this....

Guitar 1
[ Tab from: http://www.guitartabs.cc/tabs/i/interpol/nyc_tab_ver_3.html ]
e|-----------------------------------------|
B|-----------------------------------------|
G|-----------------------------------------|
D|-----------------------------------------| X 7
A|--15--Picked fast up and down------------|
E|-----------------------------------------|

e|-----------------------------------------|
B|-----------------------------------------|
G|-----------------------------------------|
D|-----------------------------------------| X 1
A|--15/19-12-13-12-13----------------------|
E|-----------------------------------------|

Synthesiser comes in here- the notes are indicated in brackets.

e|---(13)(12)(13)(12)-(10)(8)-(13)-(17)(15)(13)-|
B|----------------------------------------------|
G|----------------------------------------------|
D|----15--14-15--14-12---14-15------------------|
A|--------------------15------------------------|
E|----------------------------------------------|

If this is confusing, just listen to the song.

Last chord is F for both guitars.

Comments to Barca_Rocks@hotmail.com or in the box.
Rate if you can be bothered.
Cheers, Tom
Comments