Interpol - Not Even Jail Chords & Tabs

 

Not Even Jail Chords & Tabs

Interpol Chords & Tabs

Version: 2 Type: Tab 0 ratings
1 star 2 stars 3 stars 4 stars 5 stars
comments

Not Even Jail Tab

   
Interpol
Not Even Jail
(Guitar Pro Version)

Intro

Guitar 1
e|-12~~~-12~~~-|
B|--9~~~-13~~~-|
G|-------------|
D|-------------|
A|-------------|
E|-------------|

Verse

Guitar 2
e|---------------------------------------------------------------------|
B|---------------------------------------------------------------------|
G|-----------------------------0---------------------------------------|
D|-------------------------0-0---0-2-2-2-2-2-2-2-2-2-2-2-2-0-0---------|
A|-3-3-3-3-3-3-3-3-3-3-3-3-------------------------------------3-------|
E|--------------------------------------------------------------(x5.5)-|

Pre-Chorus

Guitar 1
e|-----------------------------------------------------------------|
B|-----------------------------------------------------------------|
G|-9-9-9-9-9-9-9-9-11-11-11-11-11-11-11-11-12-12-12-12-12-12-12-12-|
D|-----------------------------------------------------------------|
A|-----------------------------------------------------------------|
E|-----------------------------------------------------------------|

e|---------------------------------------------------------|
B|-------------------------1---1---1---1---1---1---1---1---|
G|-14-14-14-14-14-14-14-14---2---2---2---2---2---2---2---2-|
D|---------------------------------------------------------|
A|---------------------------------------------------------|
E|---------------------------------------------------------|

e|-----------------------------------------------------------------|
B|-----------------------------------------------------------------|
G|-4---4---4---4---4---4---4---4---2---2---2---2---2---2---2---2---|
D|---5---5---5---5---5---5---5---5---3---3---3---3---3---3---3---3-|
A|-----------------------------------------------------------------|
E|-----------------------------------------------------------------|

e|-8----8----8----8----8----8----8----8----7---7---7---7---7---7---7---7---|
B|---10---10---10---10---10---10---10---10---8---8---8---8---8---8---8---8-|
G|-------------------------------------------------------------------------|
D|-------------------------------------------------------------------------|
A|-------------------------------------------------------------------------|
E|-------------------------------------------------------------------------|

e|-5---5---5---5---5---5---5---5---10----10----8----8----8----8----8----8----|
B|---6---6---6---6---6---6---6---6----10----10---10---10---10---10---10---10-|
G|---------------------------------------------------------------------------|
D|---------------------------------------------------------------------------|
A|---------------------------------------------------------------------------|
E|---------------------------------------------------------------------------|

e|-7---7---7---7---8---8---8---8---|
B|---8---8---8---8---8---8---8---8-|
G|---------------------------------|
D|---------------------------------|
A|---------------------------------|
E|---------------------------------|

Guitar 2
e|------------------------------------------------------------------|
B|-1---1---1---1---1---1---1---1------------------------------------|
G|---2---2---2---2---2---2---2---2--4---4---4---4---4---4---4---4---|
D|------------------------------------5---5---5---5---5---5---5---5-|
A|------------------------------------------------------------------|
E|------------------------------------------------------------------|
				(On B-String on 2nd Time)
e|--------------------------------(3)-(3)--------------------------|
B|---------------------------------1---1---1---1---1---1---1---1---|
G|-2---2---2---2---2---2---2---2-----2---2---2---2---2---2---2---2-|
D|---3---3---3---3---3---3---3---3---------------------------------|
A|-----------------------------------------------------------------|
E|-----------------------------------------------------------------|

e|---------------------------------------------------------|
B|-----------------5-----5-----5---5-----5-7-----7-----7---|
G|-5---5---5---5---5-5-5-5-5-5-5-5-5-5-5-5-7-7-7-7-7-7-7-7-|
D|---5---5---5---5-----------------------------------------|
A|---------------------------------------------------------|
E|---------------------------------------------------------|

e|-------------------------------------------------|
B|-3-----3-----3---5-----5-----5---7-----7-----7---|
G|-4-4-4-4-4-4-4-4-5-5-5-5-5-5-5-5-7-7-7-7-7-7-7-7-|
D|-------------------------------------------------|
A|-------------------------------------------------|
E|-------------------------------------------------|

Chorus

Guitar 1
e|--8--8--8--8--8--8--8--8--8--8--8--8--8--8--8--8-|
B|--8--8--8--8--8--8--8--8--8--8--8--8--8--8--8--8-|
G|--9--9--9--9--9--9--9--9--9--9--9--9--9--9--9--9-|
D|-10-10-10-10-10-10-10-10-10-10-10-10-10-10-10-10-|
A|-------------------------------------------------|
E|-------------------------------------------------|

e|-10-10-10-10-10-10-10-10-7-7-7-7-7-7-7-7-|
B|-10-10-10-10-10-10-10-10-7-7-7-7-7-7-7-7-|
G|-11-11-11-11-11-11-11-11-7-7-7-7-7-7-7-7-|
D|-12-12-12-12-12-12-12-12-9-9-9-9-9-9-9-9-|
A|-----------------------------------------|
E|-----------------------------------------|

e|--8--8--8--8--8--8--8--8--8--8--8--8--8--8--8--8--10-10-10-10-10-10-10-10-|
B|--8--8--8--8--8--8--8--8--8--8--8--8--8--8--8--8--10-10-10-10-10-10-10-10-|
G|--9--9--9--9--9--9--9--9--9--9--9--9--9--9--9--9--11-11-11-11-11-11-11-11-|
D|-10-10-10-10-10-10-10-10-10-10-10-10-10-10-10-10--12-12-12-12-12-12-12-12-|
A|--------------------------------------------------------------------------|
E|--------------------------------------------------------------------------|

e|-7-7-7-7-7-7-7-7--8--8--8--8--8--8--8--8--8--8--8--8--8--8--8--8-|
B|-7-7-7-7-7-7-7-7--8--8--8--8--8--8--8--8--8--8--8--8--8--8--8--8-|
G|-7-7-7-7-7-7-7-7--9--9--9--9--9--9--9--9--9--9--9--9--9--9--9--9-|
D|-9-9-9-9-9-9-9-9-10-10-10-10-10-10-10-10-10-10-10-10-10-10-10-10-|
A|-----------------------------------------------------------------|
E|-----------------------------------------------------------------|

e|-10-10-10-10-10-10-10-10-7-7-7-7-7-7-7-7-|
B|-10-10-10-10-10-10-10-10-7-7-7-7-7-7-7-7-|
G|-11-11-11-11-11-11-11-11-7-7-7-7-7-7-7-7-|
D|-12-12-12-12-12-12-12-12-9-9-9-9-9-9-9-9-|
A|-----------------------------------------|
E|-----------------------------------------|

e|--8--8--8--8--8--8--8--8--8--8--8--8--8--8--8--8-|
B|-10-10-10-10-10-10-10-10--8--8--8--8--8--8--8--8-|
G|--9--9--9--9--9--9--9--9--9--9--9--9--9--9--9--9-|
D|-10-10-10-10-10-10-10-10-10-10-10-10-10-10-10-10-|
A|-------------------------------------------------|
E|-------------------------------------------------|
[ Tab from: http://www.guitartabs.cc/tabs/i/interpol/not_even_jail_tab_ver_2.html ]
e|--8--8--8--8--8--8--8--8--8--8--8--8--8--8--8--8--8~~~-|
B|--8--8--8--8--8--8--8--8--8--8--8--8--8--8--8--8--8~~~-|
G|--9--9--9--9--9--9--9--9--9--9--9--9--9--9--9--9--9~~~-|
D|-10-10-10-10-10-10-10-10-10-10-10-10-10-10-10-10-10~~~-|
A|-------------------------------------------------------|
E|-------------------------------------------------------|

Guitar 2
e|---------------------------------------------------------|
B|-----------------5-----5-----5---5-----5-7-----7-----7---|
G|-5---5---5---5---5-5-5-5-5-5-5-5-5-5-5-5-7-7-7-7-7-7-7-7-|
D|---5---5---5---5-----------------------------------------|
A|---------------------------------------------------------|
E|---------------------------------------------------------|

e|-----------------------------------------------------------------|
B|-3-----3-----3---5-----5-----5---7-----7-----7---3-----3-----3---|
G|-4-4-4-4-4-4-4-4-5-5-5-5-5-5-5-5-7-7-7-7-7-7-7-7-4-4-4-4-4-4-4-4-|
D|-----------------------------------------------------------------|
A|-----------------------------------------------------------------|
E|-----------------------------------------------------------------|

e|-----------------------------------------------------------------|
B|-5-5-5-5-5-5-5-5-5-5-5-5-5-5-5-5-7-7-7-7-7-7-7-7-7-7-7-7-7-7-7-7-|
G|-5-5-5-5-5-5-5-5-5-5-5-5-5-5-5-5-7-7-7-7-7-7-7-7-7-7-7-7-7-7-7-7-|
D|-5-5-5-5-5-5-5-5-5-5-5-5-5-5-5-5-7-7-7-7-7-7-7-7-9-9-9-9-9-9-9-9-|
A|-----------------------------------------------------------------|
E|-----------------------------------------------------------------|

e|-5-5-5-5-5-5-5-5-5-5-5-5-5-5-5-5---------------------------------|
B|-5-5-5-5-5-5-5-5-5-5-5-5-5-5-5-5-5-----5-----5---5-----5-----5---|
G|-5-5-5-5-5-5-5-5-5-5-5-5-5-5-5-5-5-5-5-5-5-5-5-5-5-5-5-5-5-5-5-5-|
D|-5-5-5-5-5-5-5-5-5-5-5-5-5-5-5-5---------------------------------|
A|-----------------------------------------------------------------|
E|-----------------------------------------------------------------|

e|---------------------------------3-----3-----3---3-----3-----3---3~~~-|
B|-5-----5-----5---5-----5-----5---5-----5-----5---5-----5-----5---5~~~-|
G|-5-5-5-5-5-5-5-5-5-5-5-5-5-5-5-5-5-5-5-5-5-5-5-5-5-5-5-5-5-5-5-5-5~~~-|
D|----------------------------------------------------------------------|
A|----------------------------------------------------------------------|
E|----------------------------------------------------------------------|

Verse

Guitar 1
e|-----------------------------3-----------------------------------|
B|-------------------------3-3---3-5-5-5-5-5-5-5-5-5-5-5-5-5-3-3-3-|
G|-5-5-5-5-5-5-5-5-5-5-5-5-----------------------------------------|
D|-----------------------------------------------------------------|
A|-----------------------------------------------------------------|
E|-----------------------------------------------------------------|

e|-----------------------------3---------------------------------|
B|-------------------------3-3---5-5-5-5-5-5-5-5-5-5-5-5-5-------|
G|-5-5-5-5-5-5-5-5-5-5-5-5---------------------------------7-7-7-|
D|---------------------------------------------------------------|
A|---------------------------------------------------------------|
E|---------------------------------------------------------------|

Guitar 2
e|-8---8---8---8---7---7---7---7---12----12----12----12----7---7---7---7---|
B|---8---8---8---8---8---8---8---8----13----13----13----13---8---8---8---8-|
G|-------------------------------------------------------------------------|
D|-------------------------------------------------------------------------|
A|-------------------------------------------------------------------------|
E|-------------------------------------------------------------------------|

e|-8---8---8---8---7---7---7---7---8---8---8---8-------|
B|---8---8---8---8---8---8---8---8---8---8---8---8-----|
G|-----------------------------------------------------|
D|-----------------------------------------------------|
A|------------------------------------------------(x4)-|
E|-----------------------------------------------------|

e|-8---8---8---8---8---8---8---8---8---8---8---8---|
B|---8---8---8---8---8---8---8---8---8---8---8---8-|
G|-------------------------------------------------|
D|-------------------------------------------------|
A|-------------------------------------------------|
E|-------------------------------------------------|

Pre-Chorus and Chorus Again

Outro

Guitar 1
e|-----------------------------------------------|
B|-10-8-10-8-8-8-8-8-8-8-8-8-8-8-8-8-10-8-10-----|
G|-----------------------------------------------|
D|-----------------------------------------------|
A|------------------------------------------(x6)-|
E|-----------------------------------------------|

e|---------------------------------------------------------------|
B|-8-8-8-8-8-----------------------------------------------------|
G|-----------10-9-9-9-9-9-10-9-7-5-5-5-5-5/9-7-5-4-4-4-4---------|
D|-------------------------------------------------------5-5-5-5-|
A|---------------------------------------------------------------|
E|---------------------------------------------------------------|

e|-------------------------------------------------------------------|
B|-------------------------------------------------------------------|
G|-10-10-9-9-7-7-9-7-0-0-0-0-0-0-0-0-7-5-4-5-4-0-12-12-12-12-9-9-9-9-|
D|-------------------------------------------------------------------|
A|-------------------------------------------------------------------|
E|-------------------------------------------------------------------|

e|---------------------------------------------------------------|
B|---------------------------------------------------------------|
G|-10-10-9-9-7-7-----------------5-5-5-5-5/9-7-5-4-4-4-4---------|
D|---------------5-5-5-5-5-5-5-5-------------------------5-5-5-5-|
A|---------------------------------------------------------------|
E|---------------------------------------------------------------|

e|-------------------------------------|
B|-------------------------------------|
G|-10-10-9-9-7-7-9-7-0-0-0-0-0-0-0-4-5-|
D|-------------------------------------|
A|-------------------------------------|
E|-------------------------------------|

Guitar 2
e|-8---8---8---8---7---7---7---7---12----12----12----12----|
B|---8---8---8---8---8---8---8---8----13----13----13----13-|
G|---------------------------------------------------------|
D|---------------------------------------------------------|
A|---------------------------------------------------------|
E|---------------------------------------------------------|

e|-7---7---7---7---8---8---8---8---7---7---7---7---------|
B|---8---8---8---8---8---8---8---8---8---8---8---8-------|
G|-------------------------------------------------------|
D|-------------------------------------------------------|
A|-------------------------------------------------(x10)-|
E|-------------------------------------------------------|
Comments