Interpol - Narc Chords & Tabs

 

Narc Chords & Tabs

Interpol Chords & Tabs

Version: 1 Type: Tab 0 ratings
1 star 2 stars 3 stars 4 stars 5 stars
comments

Narc Tab

   
-------------------------------------------------------------------------------
			     Narc - Interpol
-------------------------------------------------------------------------------
Tabbed by: Bert
Email: kline.159@osu.edu

Tuning: eBGDAE

Verse
e|---------------------------------|
B|---------------------------------|
G|---------------------------------|
D|-------2-4-5--5------2-4-5-7-5---|
A|---2-------------2---------------|
E|---------------------------------|

In verse
e|---7---|
B|---7---|
G|---7---|
D|---9---|
A|-------|
E|-------|

Chorus
e|---7---10--12--|
B|---7---7---7---|
G|---7---7---7---|
D|---------------|
A|---------------|
E|---------------|

Later
e|--------|
B|---12---|
G|---12---|
D|---14---|
A|--------|
E|--------|

[ Tab from: http://www.guitartabs.cc/tabs/i/interpol/narc_tab.html ]
e|---3-2-0-----|
B|---------3---|
G|-------------|
D|-------------|
A|-------------|
E|-------------|


e|-----------------------------------------------------|
B|-----------------------------------------------------|
G|-----------------------------------------------------|
D|---4-4-4-4-4-4-4-4-5-5-5-5-5-5-5-5-2-2-2-2-2-2-2-2---|
A|-----------------------------------------------------|
E|-----------------------------------------------------|


e|-------------------------------|
B|-------------------------------|
G|-------------------------------|
D|---4-4-4-4-4-4-4--5--4--2--4--2|
A|-------------------------------|
E|-------------------------------|


| /  slide up
| \  slide down
| h  hammer-on
| p  pull-off
| ~  vibrato
| +  harmonic
| x  Mute note
==============================================================================
Comments