Interpol - Mascara Chords & Tabs

 

Mascara Chords & Tabs

Interpol Chords & Tabs

Version: 2 Type: Tab 0 ratings
1 star 2 stars 3 stars 4 stars 5 stars
comments

Mascara Tab

Interpol - Mascara

Guitar 1

Part 1
e--1---1---0---0-------------------------------|
B--3---2---1---0-------------------------------|
Gó-2---2---2---2-------------------------------|
D----------------------------------------------|
A----------------------------------------------|
E----------------------------------------------|

Part 2
e----------------------------------------------|
B--3-3-3-3-2-2-2-2-2-2-2-2-2-2-2-2-------------|
Gó--3-3-3-3-3-3-3-3-2-2-2-2-0-0-0-0------------|
D----------------------------------------------|
A----------------------------------------------|
E----------------------------------------------|


Guitar 2

Part 1
e------------------------------------------------|
B------------------------------------------------|
G------------------------------------------------|
D--2-3----3-2---2/5-5/7-7/2-2-3-3--0-1-2---------|
A------------------------------------------------|
E------------------------------------------------|
[ Tab from: http://www.guitartabs.cc/tabs/i/interpol/mascara_tab_ver_2.html ]
Part 2
e----------------------------------------------|
B----------------------------------------------|
G--3---3/7---/2--------------------------------|
D----------------------------------------------|
A----------------------------------------------|
E----------------------------------------------|

Part 3
e--1--1-3--3-3-1-5-5--3-1-0-1--9--9--9--9--10--10--10--10---|
B-------------------------------10-10-10-10--10--10--10--10-|
G-----------------------------------------------------------|
D-----------------------------------------------------------|
A-----------------------------------------------------------|
E-----------------------------------------------------------|

Part 4
e--8------8---6---10---8---8-------8---6---10---8---8-------|
B--8------8---8---8----8---8-------8---8---8----8---8-------|
G-----------------------------------------------------------|
D-----------------------------------------------------------|
A-----------------------------------------------------------|
E-----------------------------------------------------------|

Guitar 1
Part 1 x3
(Break)
Part 1 x2
Part 2 x1

Guitar 2
Part 1 x3
Part 2 x2
Part 1 x2
(Break)
Part 3 x2
Part 4 x1


--------------------------------------------------------

Artist: Interpol
Album: Unreleased. Only played live.
Tabbed by: Peter Haden
Please send comments to obstacle_84@hotmail.com
Comments