Interpol - Mascara Chords & Tabs

 

Mascara Chords & Tabs

Interpol Chords & Tabs

Version: 1 Type: Tab 0 ratings
1 star 2 stars 3 stars 4 stars 5 stars
comments

Mascara Tab

Interpol - Mascara

Album: b side, live version
Tabbed by: Ricardo Pereda (irotinmyskin)


~ let ring

you can figure out the strumming pattern, very easy.

guit 1 verse Paul:

  
---1-------1-----0-----0--------------|
---3-------2-----1-----0--------------|
---2-------2-----2-----2--------------|
---0----------------------------------|
--------------------------------------|
--------------------------------------|
"yes, i sure miss the holidays..."

guit 2 verse Daniel:

--------------------------------------------------------------------|
--------------------------------------------------------------------|
--------------------------------------------------------------------|
-2--3~~~~~~--3-2~~~~~---2-2-/5-5/7-7/2-2-3-3~--0-1-2~~~~~-----------|
--------------------------------------------------------------------|
--------------------------------------------------------------------|

guit 1 Paul: does silence, but you can keep strumming a
             Dm chord, im almost sure thats what the keyboard plays (1:29)

guit 2 Daniel (1:29):
---------------------------|
---------------------------|
---------------------------|
---8~~~~~~~-8~/12-/7-------|x2
---------------------------|
---------------------------|
"now we're starting up the rain again...."


back to verse

[ Tab from: http://www.guitartabs.cc/tabs/i/interpol/mascara_tab.html ]
guit 1 outro Paul: (3:04)
Daniel does the kinda the same thing on the second time before changing.
-------------------------------------------------------------------|
--3---3--3--3---2---2---2---2---2---2---2---2---2---2---2---2------|
----3--3--3---3---2---2---2---2---0---0---0---0---2---2---2---2----|
-------------------------------------------------------------------|
-------------------------------------------------------------------|
-------------------------------------------------------------------|
"pitch......... black......... maybelline........"

guit 1 outro Paul:
pretty much the same but now  with some strumming.

--1---1--1---1---1---1---1---1---1---1---1---1---1---1---1---1-----|
--3---3--3---3---3---3---3---3---2---2---2---2---2---3---3---3-----|
--3---3--3---3---2---2---2---2---2---2---2---2---2---2---2---2-----|
-------------------------------------------------------------------|
-------------------------------------------------------------------|
-------------------------------------------------------------------|

guit 2 outro Daniel: i cant figure out what hes playing, it isnt very hard,
                     but u have to forgive me this is my first tab attempt.
                      and i ran out of patience right about now.


********************one of interpol's greatest songs, simple is                          
  better.*************************
                        comments please irotinmyskin@hotmail.com
Comments