Interpol - Length Of Love Chords & Tabs

 

Length Of Love Chords & Tabs

Interpol Chords & Tabs

Version: 1 Type: Tab 0 ratings
1 star 2 stars 3 stars 4 stars 5 stars
comments

Length Of Love Tab

			****************************************************
			+						   +
			+	Length of love by INTERPOL from Antics	   +
			+						   +
			****************************************************

Tabbed by: Matthias Vogt a.k.a Matty
Date: 12 Oct. 2004

Questions, comments, corrections, requests, send to: interpolny@web.de

By the way: Search contact to French and German INTERPOL fans, who are going to the INTERPOL gig in Strasbourg (F) on Nov 21st 04


Intro & 1st verse "This could be destiny..."
Guitar 1
E|---------------------------|---------------------------|
B|---------------------------|---------------------------|
G|---------------------------|--------------1-----1------| Play 14 times
D|---3-----3-----3-----3-----|--3-----3------------------|
A|------3-----3-----3-----3--|-----3-----3-----3-----3---|
E|---------------------------|---------------------------|


Chorus "Complex salacious removal"
Guitar 1                                                      
|---------------------------|--------------------------|--------------------------|---------------------------|
|---------------------------|--------------------------|--------------------------|---------------------------|
|---2-----2-----2-----2-----|--2-----2-----2-----2-----|--1-----1-----1-----1-----|--1-----1-----1-----1------| Play 4 times
|------3-----3-----3-----3--|-----3-----3-----3-----3--|-----3-----3-----3-----3--|-----3-----3-----3-----3---|
|---------------------------|--------------------------|--------------------------|---------------------------|
|---------------------------|--------------------------|--------------------------|---------------------------|

                                               
2nd verse "There is a bitter breed..."
Guitar 1
|---------------------------|---------------------------|
|---------------------------|---------------------------|
|---------------------------|--------------1-----1------| Play 10 times
|---3-----3-----3-----3-----|--3-----3------------------|
|------3-----3-----3-----3--|-----3-----3-----3-----3---|
|---------------------------|---------------------------|

|---------------------------|--------------------------|--------------------------|---------------------------|
|---------------------------|--------------------------|--------------------------|---------------------------|
|---2-----2-----2-----2-----|--2-----2-----2-----2-----|--1-----1-----1-----1-----|--1-----1-----1-----1------| 
|------3-----3-----3-----3--|-----3-----3-----3-----3--|-----3-----3-----3-----3--|-----3-----3-----3-----3---|
|---------------------------|--------------------------|--------------------------|---------------------------|
|---------------------------|--------------------------|--------------------------|---------------------------|

                                                       
Chorus "Complex salacious removal"
Guitar 1                                                    
|---------------------------|--------------------------|--------------------------|---------------------------|
|---------------------------|--------------------------|--------------------------|---------------------------|
|---2-----2-----2-----2-----|--2-----2-----2-----2-----|--1-----1-----1-----1-----|--1-----1-----1-----1------| Play 4 times
|------3-----3-----3-----3--|-----3-----3-----3-----3--|-----3-----3-----3-----3--|-----3-----3-----3-----3---|
|---------------------------|--------------------------|--------------------------|---------------------------|
|---------------------------|--------------------------|--------------------------|---------------------------|

Guitar 2

|--------------------------|--------------------------|--------------------------|--------------------------|
|--------------------------|--------------------------|--------------------------|--------------------------|
|--------------------------|--------------------------|--------------------------|--------------------------|
|--------------------------|--------------------------|--------------------------|--------------------------| 2 times
|--------------------------|--------------------------|--------------------------|--------------------------|
|--------------------------|--------------------------|--------------------------|--------------------------|

|----------------------------------|----------------------------------|--------------------------|--------------------------|
|--10--10--10--10--10--10--10--10--|--10--10--10--10--10--10--10--10--|--9--9--9--9--9--9--9--9--|--9--9--9--9--9--9--9--9--|
|----------------------------------|----------------------------------|--------------------------|--------------------------| 2 Times
|----------------------------------|----------------------------------|--------------------------|--------------------------|
|----------------------------------|----------------------------------|--------------------------|--------------------------|
|----------------------------------|----------------------------------|--------------------------|--------------------------|


Middle Part
Guitar 1

----------------------------------|----------------------------------|--------------------------|--------------------------|
--10--10--10--10--10--10--10--10--|--10--10--10--10--10--10--10--10--|--9--9--9--9--9--9--9--9--|--9--9--9--9--9--9--9--9--|
----------------------------------|----------------------------------|--------------------------|--------------------------|
----------------------------------|----------------------------------|--------------------------|--------------------------|
----------------------------------|----------------------------------|--------------------------|--------------------------|
----------------------------------|----------------------------------|--------------------------|--------------------------|
[ Tab from: http://www.guitartabs.cc/tabs/i/interpol/length_of_love_tab.html ]
----------------------------------|----------------------------------|----------------------------------|----------------------------------|
--13--13--13--13--13--13--13--13--|--13--13--13--13--13--13--13--13--|--11--11--11--11--11--11--11--11--|--15--15--15--15--15--15--15--15--|
----------------------------------|----------------------------------|----------------------------------|----------------------------------|
----------------------------------|----------------------------------|----------------------------------|----------------------------------|
----------------------------------|----------------------------------|----------------------------------|----------------------------------|
----------------------------------|----------------------------------|----------------------------------|----------------------------------|
                                                     
----------------------------------|----------------------------------|----------------------------------|----------------------------------|
--10--10--10--10--10--10--10--10--|--10--10--10--10--10--10--10--10--|--10--10--10--10--10--10--10--10--|--10--10--10--10--10--10--10--10--|
----------------------------------|----------------------------------|----------------------------------|----------------------------------|
----------------------------------|----------------------------------|----------------------------------|----------------------------------|
----------------------------------|----------------------------------|----------------------------------|----------------------------------|
----------------------------------|----------------------------------|----------------------------------|----------------------------------|                               
                                                     
----------------------------------|----------------------------------|----------------------------------|----------------------------------|
--13--13--13--13--13--13--13--13--|--13--13--13--13--13--13--13--13--|--11--11--11--11--11--11--11--11--|--15--15--15--15--15--15--15--15--|
----------------------------------|----------------------------------|----------------------------------|----------------------------------|
----------------------------------|----------------------------------|----------------------------------|----------------------------------|
----------------------------------|----------------------------------|----------------------------------|----------------------------------|
----------------------------------|----------------------------------|----------------------------------|----------------------------------|
                                                                                                                                                                                                         
----------------------------------|----------------------------------|----------------------------------|----------------------------------|
--10--10--10--10--10--10--10--10--|--10--10--10--10--10--10--10--10--|--10--10--10--10--10--10--10--10--|--10/--9/-10--10--10--10/--9/-10--|
----------------------------------|----------------------------------|----------------------------------|----------------------------------|
----------------------------------|----------------------------------|----------------------------------|----------------------------------|
----------------------------------|----------------------------------|----------------------------------|----------------------------------|
----------------------------------|----------------------------------|----------------------------------|----------------------------------|
                                                                                                          
Guitar2 (palm muted)
|--------------------------|--------------------------|--------------------------|--------------------------|
|--------------------------|--------------------------|--------------------------|--------------------------|
|--------------------------|--------------------------|--------------------------|--------------------------|
|--------------------------|--------------------------|--------------------------|--------------------------|
|--------------------------|--------------------------|--------------------------|--------------------------|
|--------------------------|--------------------------|--------------------------|--------------------------|

||---------------------------|---------------------------||
||---------------------------|---------------------------||
||*--------------------------|--------------1-----1-----*||  Play 8 times
||*--3-----3-----3-----3-----|--3-----3-----------------*||
||------3-----3-----3-----3--|-----3-----3-----3-----3---||
||---------------------------|---------------------------||


Guitar3 
||--------------------------|--------------------------|--------------------------|--------------------------||
||--------------------------|--------------------------|--------------------------|--------------------------|| 
||*-------------------------|--------------------------|--------------------------|-------------------------*|| 3 times
||*-------------------------|--------------------------|--------------------------|-------------------------*||
||--------------------------|--------------------------|--------------------------|--------------------------||
||--------------------------|--------------------------|--------------------------|--------------------------||

|--------------------------|--------------------------|--------------------------|--------------------------|
|--------------------------|--------------------------|--------------------------|--------------------------|
|--------------------------|--------------------------|--------------------------|--------------------------|
|--------------------------|--------------------------|--------------------------|--------------------------|
|--7--7--7--7--7--7--7--7--|--7--7--7--7--7--7--7--7--|--5--5--5--5--5--5--5--5--|-10-10-10-10-10-10-10-10--|
|--------------------------|--------------------------|--------------------------|--------------------------|

|--------------------------|--------------------------|--------------------------|--------------------------|
|--------------------------|--------------------------|--------------------------|--------------------------|
|--------------------------|--------------------------|--------------------------|--------------------------|
|--------------------------|--------------------------|--------------------------|--------------------------|
|--3--3--3--3--3--3--3--3--|--3--3--3--3--3--3--3--3--|--3--3--3--3--3--3--3--3--|--3--3--3--3--3--3--3--3--|
|--------------------------|--------------------------|--------------------------|--------------------------|

                                                      
Final chorus
Guitar1                                                       
|----------------------------------|----------------------------------|--------------------------|--------------------------|
|--10--10--10--10--10--10--10--10--|--10--10--10--10--10--10--10--10--|--9--9--9--9--9--9--9--9--|--9--9--9--9--9--9--9--9--|
|----------------------------------|----------------------------------|--------------------------|--------------------------|
|----------------------------------|----------------------------------|--------------------------|--------------------------| Play 4 times
|----------------------------------|----------------------------------|--------------------------|--------------------------|
|----------------------------------|----------------------------------|--------------------------|--------------------------|

Guitar2
|---------------------------|--------------------------|--------------------------|---------------------------|
|---------------------------|--------------------------|--------------------------|---------------------------|
|---2-----2-----2-----2-----|--2-----2-----2-----2-----|--1-----1-----1-----1-----|--1-----1-----1-----1------| Play 4 times
|------3-----3-----3-----3--|-----3-----3-----3-----3--|-----3-----3-----3-----3--|-----3-----3-----3-----3---|
|---------------------------|--------------------------|--------------------------|---------------------------|
|---------------------------|--------------------------|--------------------------|---------------------------|


Outro
Guitar 1 (palm muted)
|---------------------------|---------------------------|
|---------------------------|---------------------------|
|---------------------------|--------------1-----1------| Play 4 times
|---3-----3-----3-----3-----|--3-----3------------------|
|------3-----3-----3-----3--|-----3-----3-----3-----3---|
|---------------------------|---------------------------|

Guitar 2: Guitar vs. Amp ;-)
                                                   

Lyrics

This could be destiny
Oh sweetheart
I've had no sense of time
Since we started 
I got friends in need
Oh sweetheart
I'd go lengths and lengths and lengths of love
Since we started this thing now 

Complex salacious removal
Complex salacious removal 

There is a bitter breed
Oh sweetheart
They will be watching you sometimes
With their bitter hearts 

But we went through with these
Oh we're shifting the heartache
We want strong summer love that must roam washed up blood
Just to stay away 

Complex salacious removal
Complex salacious removal 

Complex salacious removal





Comments