Interpol - Leif Erikson Chords & Tabs

 

Leif Erikson Chords & Tabs

Interpol Chords & Tabs

Version: 1 Type: Tab 0 ratings
1 star 2 stars 3 stars 4 stars 5 stars
comments

Leif Erikson Tab

Artist: Interpol
Track: Leif Erikson
Album: Turn On The Bright Lights
Tabbed By: Tomsk

There isn't a whole lot of guitaring in this track, the synthesiser
keyboard fills out the song the most. The majority of the song is
moving from Dm to C. See below.

e|----------------------------------------------|
B|----------------------------------------------|
G|----------------------------------------------|
D|--7777777777777777-1010101010101010-99999999--|
A|--5555555555555555--7-7-7-7-7-7-7-7-77777777--|
E|----------------------------------------------|

Occasionaly this is heard:

e|---------------|
B|-66666666------|
G|-77777777------|
D|---------------|
A|---------------|
E|---------------|

Chorus

"The clock is set for 9 but you 
know we're going to make it 8"

e|---------------------------|
B|--13-13-13-13-13-13-13-13--|
G|--14-14-14-14-14-14-14-14--|
D|---------------------------|
A|---------------------------|
E|---------------------------|

e|--15-15-15-15-15-15-15-15--|
B|--13-13-13-13-13-13-13-13--|
G|--14-14-14-14-14-14-14-14--|
D|---------------------------|
A|---------------------------|
E|---------------------------|
[ Tab from: http://www.guitartabs.cc/tabs/i/interpol/leif_erikson_tab.html ]
e|----------------------------------------|
B|--8-8-8-8-8-8-8-8-10-10-10-10-10-8-8-8--|
G|--9-9-9-9-9-9-9-9--9--9--9--9--9-9-9-9--|
D|----------------------------------------|
A|----------------------------------------|
E|----------------------------------------|

Bridge

"It's like learning a new language"

e|--1-1-1-0-0-0-0-0-0-0-0--|
B|--1-1-1-1-1-1-1-1-1-1-1--|
G|--2-2-2-0-0-0-0-0-0-0-0--|
D|--3-3-3-2-2-2-2-2-2-2-2--|
A|--3-3-3-3-3-3-3-3-3-3-3--|
E|-------------------------|

Other guitarist

e|---------------------------------------|
B|---------------------------------------|
G|--10-10-10-----------------------------|
D|----------10-10-10---------------------|
A|------------------8-8-8-8-8-8-8-8-8-8--|
E|---------------------------------------|

Outro

"She says brief things, her love's a pony"

e|---------------|-------------|
B|--13-15-13--12-|---10---12---|
G|---------------|-12---12--9--|
D|---------------|-------------|
A|---------------|-------------|
E|---------------|-------------|


e|------------|-------------|
B|----8--10---|---8-8---10--|
G|--10--10--7-|-10---10-----|
D|------------|-------------|
A|------------|-------------|
E|------------|-------------|

Barca_Rocks@hotmail.com for comments, requests etc.
Comments