Interpol - Leif Erikson Chords & Tabs

 

Leif Erikson Chords & Tabs

Interpol Chords & Tabs

Version: 1 Type: Bass Tab 0 ratings
1 star 2 stars 3 stars 4 stars 5 stars
comments

Leif Erikson Bass Tab

Interpol
Leif Erikson

Verse
G|--------------------------------|--------------------------------|
D|--------------------------------|--------------------------------|
A|--------------------------------|-3-3-3-3-3-3-3-3-3-3-3-37-7-7-7-|
D|-0-0-0-0-0-0-0-0-3-3-3-3-5-5-5-5|--------------------------------|

Chorus
G|--------------------------------|--------------------------------|
D|-------7-------------------7----|-------5-------------------5----|
A|-5-5-5-----5---5-5-5-5---5---5--|-3-3-3-----3---3-3-3-3---3---3--|
D|--------------------------------|--------------------------------|
[ Tab from: http://www.guitartabs.cc/tabs/i/interpol/leif_erikson_btab.html ]
Outro
G|--------------------------------|--------------------------------||
D|--------------------------------|--------------------------------||
A|-0-0-0-0-0-0-0-0-3-3-3-3-3-3-3-3|--------------------------------||
D|--------------------------------|-3-3-3-3-3-3-3-3-3-3-3-3-5-5-5-5|| 8x

G|--------------------------------|--------------------------------|
D|--------------------------------|--------------------------------|
A|-0------------------------------|--------------------------------|
D|--------------------------------|--------------------------------|


[00:17] Verse 4x
[00:52] Chorus 2x
[01:10] Verse 4x
[01:45] Chorus 4x
[02:21] Verse 2x
[02:39] Outro
Comments