Interpol - Hands Away Chords & Tabs

 

Hands Away Chords & Tabs

Interpol Chords & Tabs

Version: 6 Type: Tab 0 ratings
1 star 2 stars 3 stars 4 stars 5 stars
comments

Hands Away Tab

   
---------------------------------------------------------------------------
			     Hands Away - Interpol
---------------------------------------------------------------------------
Tabbed by: acoustic_chick3

Email: acoustic_chick90@comcast.net

Tuning: Standard

I'm pretty sure this is right, give or take a few plucks. Enjoy!

Intro

e|-------------------------------------------------------------------------|
B|---1---1---1---1---1---1---1---1-----------------------------------------|
G|-----------------------------------0---0---0---0---0---0---0---0---------|
D|-------------------------------------------------------------------------|
A|-0---0---0---0---0---0---0---0-------------------------------------------|
E|---------------------------------0---0---0---0---0---0---0---0-----------|


e|--------------------------------------------------------------------------|
B|-------------------0---1---1---1------------------------------------------|
G|--------------------------------------------------------------------------|
D|---3---3---3---3----------------------------------------------------------|
A|-5---5---5---5---0---0---0---0--------------------------------------------|
E|--------------------------------------------------------------------------|

Verse

e|-------------------------------------------------------------------------|
B|---1---1---1---1---1---1---1---1-----------------------------------------|
G|-----------------------------------0---0---0---0-------------------------|
D|-------------------------------------------------------------------------|
A|-0---0---0---0---0---0---0---0-------------------------------------------|
E|---------------------------------0---0---0---0---------------------------|


e|--------------------------------------------------------------------------|
B|--------------------0---1---1---1---1---1---1---1-------------------------|
G|--------------------------------------------------------------------------|
D|---3---3---3---3----------------------------------------------------------|
A|-5---5---5---5---0---0---0---0---0---0---0---0----------------------------|
E|--------------------------------------------------------------------------|


  Drums kick in
e|--------------------------------------------------------------------------|
B|---1---1---1---1---1---1---1---0---0--------------------------------------|
G|--------------------------------------------------------------------------|
D|--------------------------------------------------------------------------|
A|-0---0---0---0---0---0---0---0---0----------------------------------------|
E|--------------------------------------------------------------------------|

[ Tab from: http://www.guitartabs.cc/tabs/i/interpol/hands_away_tab_ver_6.html ]
"Oooooh what happened?" x2                                       |one time|
e|--------------------------------------------------------------------------|
B|---3---3---3---3-------1---0--------0---1---1---1---1---1---1---0---0-----|
G|-------------------2-----------2------------------------------------------|
D|-3---3---3---3---3---3---3------------------------------------------------|
A|----------------------------------0---0---0---0---0---0---0---0---0-------|
E|--------------------------------------------------------------------------|


Violin and Synthesisers start, play this once       |        x4        |
e|--------------------------------------------------------------------------|
B|--------------------------------------------------------------------------|
G|--------------------------------------------------------------------------|
D| --5---5---5---5---5---5---5---5\---3---3---3---3/--10---10---10---10-----|
A|-7---7---7---7---7---7---7---7--\-5---5---5---5--/12---12---12---12-------|
E|--------------------------------------------------------------------------|

  Then play this once                                              |  x3   |
e|--------------------------------------------------------------------------|
B|------------------------------------------------------------------10------|
G|--------------------------------------------------------------------------|
D| --5---5---5---5---5---5---5-------3---3---3---3/---10---10---10----10----|
A|-7---7---7---7---7---7---7---7-6-5---5---5---5--/12---12---12---12-----12-|
E|--------------------------------------------------------------------------|

  Then just keep playing this until the ending      |         x4        |
e|--------------------------------------------------------------------------|
B|--------------------------------------------------------------------------|
G|--------------------------------------------------------------------------|
D| --5---5---5---5---5---5---5-------3---3---3---3/---10---10---10---10-----|
A|-7---7---7---7---7---7---7---7-6-5---5---5---5--/12---12---12---12--------|
E|--------------------------------------------------------------------------|

  Ending                                             |   Am   |
e|-----------------------------------------------------------0--------------|
B|---3---3---3---3-------1---0--------0---1---1---1--------1----------------|
G|-------------------2-----------2-----------------------2------------------|
D|-3---3---3---3---3---3---3---------------------------2--------------------|
A|----------------------------------0---0---0---0----0----------------------|
E|--------------------------------------------------------------------------|
Comments