Interpol - Hands Away Chords & Tabs

 

Hands Away Chords & Tabs

Interpol Chords & Tabs

Version: 5 Type: Tab 0 ratings
1 star 2 stars 3 stars 4 stars 5 stars
comments

Hands Away Tab

based on live video @ Koln
tabbed by acidjames


ex : x8 > means play it 8 times, listen to the song it's obvious!

intro

e---------- ----------------- ------------- --------------------|
B---1------ ----------------- ------------- ---0----1-----------|
G------(x8) ------0-------(x8)---------(x4) --------------------|
D---------- ----------------- -----3------- --------------------|
A-0-------- ----------------- ---5--------- -0----0-------------|
E---------- ----0------------ ------------- --------------------|

singing starts

e---------- ----------------- ------------ ---------------------|
B---1------ ----------------- ------------ ----0----1-----------|
G------(x8) ------0-------(x4)--------(x4) ---------------------|
D---------- ----------------- -----3------ ---------------------|
A-0-------- ----------------- ---5-------- --0----0-------------|
E---------- ----0------------ ------------ ---------------------|

twice > see lyrics


e-------------------------------------------------------------|
B---1---------0----0----3---3---3---3-------1---0-------0---1-|
G------x8-------------------------------2-----------2---------|
D---------------------3---3---3---3---3---3---3---3---3---3---|
A-0---------0----0--------------------------------------------|
E-------------------------------------------------------------|


x2

violin synth


e------------------------------------------------------------|
B---1--------------------------------------------------------|
G------x8-------------x8-------------x4--------------x8------|
D---------------5-------------3---------------10-------------|
A-0----------7--------------5--------------12----------------|
E------------------------------------------------------------|

[ Tab from: http://www.guitartabs.cc/tabs/i/interpol/hands_away_tab_ver_5.html ]
e------------------------------------------------------------|
B------------------------------------------------------------|
G----------------x8------------------x4--------------x8------|
D----------5-----------------3-----------/----10-------------|
A--------7-----------7--6--5-------------/-12----------------|
E------------------------------------------------------------|

this is this little difference which starts @ 1min14sec

e-----------------------|
B-----------------------|
G---------------12---x8-|
D----------10-----------|
A--------12---12--------|
E-----------------------|


chords played with slight distortion + reverb


e------------------------------------------------------------|
B------------------------------------------------------------|
G------------7------5------12--------------------------------|
D------------5------3------10--------------------------------|
A------------7------5------12--------------------------------|
E------------------------------------------------------------|

with reverb singing

until singing finishes


e------------------------------------------------------------|
B------------------------------------------------------------|
G----------------x8------------------x4--------------x8------|
D----------5-----------------3-----------/----10-------------|
A--------7-----------7--6--5-------------/-12----------------|
E------------------------------------------------------------|

outro

e--------------------------------------------0---------------|
B----3---3---3---3-------1---0-------------1-----------------|
G--------------------2-----------2-------2-------------------|
D--3---3---3---3---3---3---3---3-------2---------------------|
A------------------------------------0-----------------------|
E------------------------------------------------------------|
Comments