Interpol - Hands Away Chords & Tabs

 

Hands Away Chords & Tabs

Interpol Chords & Tabs

Version: 3 Type: Tab 0 ratings
1 star 2 stars 3 stars 4 stars 5 stars
comments

Hands Away Tab

   
Artist: Interpol
Track: Hands Away
Album: Turn On The Bright Lights
Tabbed by: TomSk

   Am
e|--------------------------|
B|--1--1--1--1--1--1--1--1--|
G|--------------------------|
D|--------------------------|
A|-0--0--0--0--0--0--0--0---|
E|--------------------------|

    Em 
e|--------------------------|
B|--------------------------|
G|---0--0--0--0--0--0--0--0-|
D|--------------------------|
A|--------------------------|
E|--0--0--0--0--0--0--0--0--|

    G
e|--------------------------|
B|--------------------------|
G|--------------------------|
D|---3--3--3--3--0--1--1--1-|  etc.
A|--5--5--5--5--0--0--0--0--|
E|--------------------------|

    F
e|--------------------------|
B|---3--3--3--3--3----1--0--|
G|-----------------2--------|
D|-3--3--3--3-----3--3--3-3-|
A|--------------------------|
E|--------------------------|

   Am
e|--------------------------|
B|--0--1--1--1--1--1--1--1--|
G|--------------------------|
D|--------------------------|
A|-0--0--0--0--0--0--0--0---|
E|--------------------------|

o:50 seconds. Second guitar.

e|--0-0-0-0-0-0-0-0-0-0-0---|
B|--5-5-5-5-5-5-5-5-5-5-5---|
G|--------------------------|
D|--------------------------|
A|--------------------------|
E|--------------------------|
[ Tab from: http://www.guitartabs.cc/tabs/i/interpol/hands_away_tab_ver_3.html ]
e|--0-0-0-5-0-0-5-0-5-0-0---|
B|--5-5-5-5-5-5-5-5-5-5-5---| etc. 
G|--------------------------|
D|--------------------------|
A|--------------------------|
E|--------------------------|

Synthesiser controls the middle.

Am         Dm             Am
"Home spun desperation's knowing"

Am           Dm             Am
"Inside your cover's always blown"


Ending
    Em 
e|--------------------------|
B|--------------------------|
G|---0--0--0--0--0--0--0--0-|
D|--------------------------|
A|--------------------------|
E|--0--0--0--0--0--0--0--0--|

    G
e|--------------------------|
B|--------------------------|
G|--------------------------|
D|---3--3--3--3--0--1--1--1-|  etc.
A|--5--5--5--5--0--0--0--0--|
E|--------------------------|

    F
e|--------------------------|
B|---3--3--3--3--3----1--0--|
G|-----------------2--------|
D|-3--3--3--3-----3--3--3-3-|
A|--------------------------|
E|--------------------------|

   Am		    Am	
e|----------------------0---|
B|--0--1--1--1--1------1----|
G|--------------------2-----|
D|-------------------2------|
A|-0--0--0--0--0----0-------|
E|--------------------------|

Cast your vote if you want.
Comments in the box or to Barca_Rocks@hotmail.com
Cheers
Comments