Interpol - Hands Away Chords & Tabs

 

Hands Away Chords & Tabs

Interpol Chords & Tabs

Version: 1 Type: Bass Tab 0 ratings
1 star 2 stars 3 stars 4 stars 5 stars
comments

Hands Away Bass Tab

   
Interpol
Hands Away

Probably no bass until 2:10, but if there is...
x1 (0:00-0:09)
G|---------------------------------7-7-7-7-|
D|-7-7-7-7-7-7-7-7-2-2-2-2-2-2-2-2---------|
A|-----------------------------------------|
D|-----------------------------------------|

x2 (0:09-0:27)
G|---------------------------------7-7-7-7-|
D|-7-7-7-7-7-7-7-7-7-7-7-7-2-2-2-2---------|
A|-----------------------------------------|
D|-----------------------------------------|

x1 (0:27-0:38)
G|-------------------------------------------------|
D|-7-7-7-7-7-7-7-7-7-7-7-7-7-7-7-7-2-2-2-2-2-2-2-2-|
A|-------------------------------------------------|
D|-------------------------------------------------|

x1 (0:38-0:45)
G|---------------------------------|
D|-7-7-7-7-7-7-7-7-2-2-2-2-2-2-2-2-|
A|---------------------------------|
D|---------------------------------|

x4 (0:45-1:39)
G|-------------------------------------------------7-7-7-7-|
D|-7-7-7-7-7-7-7-7-7-7-7-7-7-7-7-7-2-2-2-2-2-2-2-2---------|
A|---------------------------------------------------------|
D|---------------------------------------------------------|
[ Tab from: http://www.guitartabs.cc/tabs/i/interpol/hands_away_btab.html ]
x2 (1:39-2:02)
G|-----------------------------------------7-7-7-7-|
D|-7-7-7-7-7-7-7-7-7-7-7-7-2-2-2-2-2-2-2-2---------|
A|-------------------------------------------------|
D|-------------------------------------------------|

x1 (2:02-2:10)
G|---------------------------------|
D|-7-7-7-7-7-7-7-7-7-7-7-7-7-7-7-7-|
A|---------------------------------|
D|---------------------------------|

x1 (2:10-2:23)
G|------------------------------------------------------------|
D|------------------------------------------------------------|
A|-7777777777777777-55555555-00000000000000000000000000000000-|
D|------------------------------------------------------------|

x1 (2:23-2:36)
G|------------------------------------------------------------|
D|--------------------------------------------7-7-7-7-7-7-7-7-|
A|-7777777777777777-55555555-0000000000000000~~~~~~~~~~~~~~~~~|
D|------------------------------------------------------------|

x1 (2:37-2:49)
G|---------------------------------------------------------|
D|-2-2-2-2-2-2-2-2-0-0-0-0-7-7-7-7-7-7-7-7-7-7-7-7-7-7-7-7-|
A|---------------------------------------------------------|
D|---------------------------------------------------------|
Comments