Interpol - Evil Chords & Tabs

 

Evil Chords & Tabs

Interpol Chords & Tabs

Version: 4 Type: Tab 0 ratings
1 star 2 stars 3 stars 4 stars 5 stars
comments

Evil Tab

Tabbed by: Ted
workshopskater@cox.net

I saw Interpol play this live a couple of times and this is how they play it.

Guitar 1- Verse
e --------------------------------------|
b --------------------------------------|
g --5-----------------------------------|
d --x---8-8-8-8--7---5-5-5-5------------|
a --8---x-x-x-x--x---7-7-7-7------------|
e ------6-6-6-6--5----------------------|

e --------------------------------------|
b --------------------------------------|
g --5-----------------------------------| Play this on the last time                
d --x---8-8-8-8--7----5-5-5-5-5-5-5-5---| before the pre-chorus.
a --8---x-x-x-x--x----7-7-7-7-7-7-7-7---|
e ------6-6-6-6--5----------------------|

Guitar 2- Verse
e --------------------------------------|
b ---------------------8-8--------------|
g ---------------------5-5--------------|
d --------------------------------------|
a --------------------------------------|
e --------------------------------------|

Guitar 2- Pre-Chorus 
e -----------------------|
b --8-8-6-6-6-6-6--------| 
g --5-5-5-5-5-5-5--------|
d -----------------------|
a -----------------------|
e -----------------------|

Guitar 1- Pre-Chorus
e -------------------------------------|
b -------------------------------------|
g -------------------------------------|
d ------------------7(x8)--------------|
a ------------------5------------------|
e -------------------------------------|
[ Tab from: http://www.guitartabs.cc/tabs/i/interpol/evil_tab_ver_4.html ]
Guitar 1- Chorus 
e --------------------------------------------------------------------|
b ---------------------------------6-6-6------------------------------|
g ---------------------------------x-x-x------------------------------|
d --10-10-10-10-10-10-10-10--7-7-7-7-7-7-7-7--------------------------|
a ---8--8--8--8--8--8--8--8--5-5-5-5-5-5-5-5--------------------------|
e --------------------------------------------6(x8)-5(x8)-8(x8)-6(x8)-|


Guitar 2- Chorus
e ------------------------------------------------|
b ------------------------------------------------|
g ---10(x8)-5(x8)-15(x8)-14-(x8)------------------|
d ----x-----x------x------x------10(x8)-8(x8)-----|
a ----8-----7-----13-----12------10-----8---------|
e --------------------------------8-----6---------|


Guitar 1- Interlude 1 (with delay effect)
e ---------------------------------------------------|
b --10-10-10-10-10-10-10-10--9--9--9--9--7--7--7--7--|
g --10-10-10-10-10-10-10-10-10-10-10-10-10-10-10-10--|
d ---------------------------------------------------|
a ---------------------------------------------------|
e ---------------------------------------------------|

Guitar 1- Interlude 2
e ------------------------|
b --10--10-10---9---7--7--|
g --10--10-10--10--10-10--|
d ------------------------|
a ------------------------|
e ------------------------|

Guitar 2- Interlude 1
e ----------------------------------------------|
b ----------------------------------------------|
g ----------------------------------------------|
d ----------------------------------------------|
a --8-8-8-8-8-10-10-10-12-12-12-12-12-12-12-12--|
e ----------------------------------------------|

Song Order

Verse
Pre-Chorus
Chorus
Interlude 1
Verse
Pre-Chorus
Chorus x2
Interlude 2
Interlude 1 (w/ Guitar 2)
Chorus
Comments