Interpol - Evil Chords & Tabs

 

Evil Chords & Tabs

Interpol Chords & Tabs

Version: 6 Type: Bass Tab

Evil Bass Tab

-----------------------------------------------------------------------------
		            Evil - Interpol
-----------------------------------------------------------------------------
Tabbed By : muse_
e-mail: geoffreys_experience@msn.com

Tuning: Standard

This is my first tab and is all my own work. I'm pretty sure it's 100% correct.
In each verse and in the Middle Eight after each time you play the main riff there is a 
to go with it. Which variation you play is listed in order.

/ slide up
 slide down

Main Riff/Verse
played once then into a variation each time (that coupling is repeated 5 times)

----------------------------|
----------------------------|
8---8-8---------------5-5---|
--------6-6-6-5---5-5-----5-|


Variations (numbered)


1    ----------------------------|
     ----------------------------|
     8---8-8---------------5-5-5-|
     --------6-6-6-5---5-5-------|

2    ----------------------------|
     ----------------------------|
     8---8-8-------------5-5-7-7-|
     --------6-6-6-5---5---------|


3    ----------------------------|
     ----------------------------|
     8---8-8-------------5-5-5-5-|
     --------6-6-6-5---5---------|

Variation Order for Intro and First Verse:
1
3
1
2
2


Pre-Chorus

------------------------|
----------------0-0---0-|
----1-1---1-0-----------|
1-----------------------|

--------------2---2---7---7-|
--------------------0---0---|
----1-1---1-0---0-----------|
1---------------------------|

------------------------|
----------------0-0---0-|
----1-1---1-0-----------|
1-----------------------|

-----------------------------------------------------|
--------------0-0-0----------------------------------|
----1-1---1-0-------3---3-3--------------------------|
1----------------------------------------------------|
-----------------------------------------------------|
-----------------------------------------------------|
8---------------5-5---8-8---------------5-5-5-5-5-5--|
----6-6---5-5---------------6-6---5-5----------------|


Chorus


--------------------------------|
--------------------------------|
8-8-8-8-8-8-8-8-5-5-5-5-5-5-5-5-|
--------------------------------|


--------------------------------|
--------------------------------|
--------------------------------|
6-6-6-6-6-6-6-6-5-5-5-5-5-5-5-5-|


--------------------------------|
--------------------------------|
--------------------------------|
8-8-8-8-8-8-8-8-6-6-6-6-5-5-7-7-|


Verse
played once then into a variation each time (that coupling is repeated 3 times)

----------------------------|
----------------------------|
8---8-8---------------5-5---|
--------6-6-6-5---5-5-----5-|

Variation Order for Second verse:
1
2
2

Pre-Chorus

------------------------|
----------------0-0---0-|
----1-1---1-0-----------|
1-----------------------|

--------------2---2---7---7-|
--------------------0---0---|
----1-1---1-0---0-----------|
1---------------------------|

------------------------|
----------------0-0---0-|
----1-1---1-0-----------|
1-----------------------|
[ Tab from: http://www.guitartabs.cc/tabs/i/interpol/evil_btab_ver_6.html ]
----------------------------|
--------------0-0-0---------|
----1-1---1-0-------3---3-3-|
1---------------------------|

----------------------------------------------------|
----------------------------------------------------|
8---------------5-5---8-8---------------5-5-5-5-5-5-|
----6-6---5-5---------------6-6---5-5---------------|


Chorus


--------------------------------|
--------------------------------|
8-8-8-8-8-8-8-8-5-5-5-5-5-5-5-5-|
--------------------------------|


--------------------------------|
--------------------------------|
--------------------------------|
6-6-6-6-6-6-6-6-5-5-5-5-5-5-5-5-|


--------------------------------|
--------------------------------|
--------------------------------|
8-8-8-8-8-8-8-8-6-6-6-6-5-5-7-7-|

--------------------------------|
--------------------------------|
8-8-8-8-8-8-8-8-5-5-5-5-5-5-5-5-|
--------------------------------|


--------------------------------|
--------------------------------|
--------------------------------|
6-6-6-6-6-6-6-6-5-5-5-5-5-5-5-5-|


--------------------------------|
--------------------------------|
--------------------------------|
8-8-8-8-8-8-8-8-6-6-6-6-5-5-7-7-|


---------------------------------|
---------------------------------|
8--------------------------------|
---------------------------------|

Middle Eight 0r Third Verse


played once then into a variation each time (that coupling is repeated 3 times)

--------|----------------------------|
--------|----------------------------|
5-5-7-7-|8---8-8---------------5-5---|
--------|--------6-6-6-5---5-5-----5-|
only play
first time


Variation Order for Middle Eight:
2
3
2


Coming out of Middle Eight into Chorus

----------------------------|
----------------------------|
8---8-8---------------5-5---|
--------6-6-6-5---5-5-----5-|

--------------------------------|
--------------------------------|
8-8-8-8-------------5-5-5-5-5-5-|
--------6-6-6-6-5-5-------------|

Chorus


--------------------------------|
--------------------------------|
8-8-8-8-8-8-8-8-5-5-5-5-5-5-5-5-|
--------------------------------|


--------------------------------|
--------------------------------|
--------------------------------|
6-6-6-6-6-6-6-6-5-5-5-5-5-5-5-5-|


--------------------------------|
--------------------------------|
--------------------------------|
8-8-8-8-8-8-8-8-6-6-6-6-5-5-7-7-|

--------------------------------|
--------------------------------|
8-8-8-8-8-8-8-8-5-5-5-5-5-5-5-5-|
--------------------------------|


--------------------------------|
--------------------------------|
--------------------------------|
6-6-6-6-6-6-6-6-5-5-5-5-5-5-5-5-|


--------------------------------|
--------------------------------|
--------------------------------|
8-8-8-8-8-8-8-8-6-6-6-6-5-5-7-7-|

Outro

------------------------------------------------------------------|
------------------------------------------------------------------|
8-8-8-8-8-8-8-8-5-5-5-5-5-5-5-5----------------/8-8-8-8-5-5-7-7-8-|
--------------------------------8-8-8-8-8-8-8-8-------------------|