Interpol - Evil Chords & Tabs

 

Evil Chords & Tabs

Interpol Chords & Tabs

Version: 4 Type: Bass Tab

Evil Bass Tab

   
-----------------------------------------------------------------------------
			     Evil- Interpol
-----------------------------------------------------------------------------


Tuning:standard


G|-------------------------| ---------|
D|-33----------------------|          |
A|----3330-----55550-------|          |  X10
E|---------55--------------| ---------|         

G|-------------------------------------------------------------| ---|
D|-33-------------------33---------7-----7-------7--------7----|    | 
A|----3330------5550-------3330--------------5-------5---------|    | X2
E|----------55------------------5-----5------------------------| ---|

G|--------------------------------------------|
D|-33-------------33--------------------------|
A|----33------55-----33-----55----------------|
E|--------55------------55--------------------|

G|----------------------------------------------------------|
D|-33333333--------------------------33333333---------------|
A|---------55555555-00000000-33333333--------55555555-------|
E|----------------------------------------------------------|

G|-------------------------| ---------|
D|-33----------------------|          |
A|----3330-----55550-------|          |  X6
E|---------55--------------| ---------|   
[ Tab from: http://www.guitartabs.cc/tabs/i/interpol/evil_btab_ver_4.html ]
G|-------------------------------------------------------------| ---|
D|-33-------------------33---------7-----7-------7--------7----|    | 
A|----3330------5550-------3330--------------5-------5---------|    | X2
E|----------55------------------5-----5------------------------| ---|

G|--------------------------------------------|
D|-33-------------33--------------------------|
A|----33------55-----33-----55----------------|
E|--------55------------55--------------------|

G|----------------------------------------------------------| ---|
D|-33333333--------------------------33333333---------------|    |
A|---------55555555-00000000-33333333--------55555555-------|    | X 2
E|----------------------------------------------------------| ---

G|------------------------------------|
D|------------------------------------|
A|--00335-----------------------------|
E|------------------------------------|

G|-------------------------| 
D|-33----------------------|          
A|----3330-----55550-------|          
E|---------55--------------|

G|----------------------------------------------------------| ---|
D|-33333333--------------------------33333333---------------|    |
A|---------55555555-00000000-33333333--------55555555-------|    | X 2
E|----------------------------------------------------------| ---

G|-----------------------| ---|
D|-33333333--------------|    |
A|---------55555555------|    | X 2
E|-----------------------| ---


END

| /  slide up
| \  slide down
| h  hammer-on
| p  pull-off
| ~  vibrato
| +  harmonic
| x  Mute note
===============================================================================