Interpol - Evil Chords & Tabs

 

Evil Chords & Tabs

Interpol Chords & Tabs

Version: 3 Type: Bass Tab 0 ratings
1 star 2 stars 3 stars 4 stars 5 stars
comments

Evil Bass Tab

Interpol - Evil

Verse 1
G:------------------------------------------|
D:------------------------------------------|
A:---8-88----------------------5-5----------|
E:------------666-----5-55---------5--------|

G:------------------------------------------|
D:------------------------------------------|
A:---8-88----------------------5-5-5--------|
E:------------666-----5-55------------------|


Pre-Chorus
G:-------------------------------------------------------------|
D:------------------------------------------0-0--------0-------|
A:-----------------1-1------1-0-------0------------------------|
E:-1---------1-------------------------------------------------|

G:----------------------------------3-----2----2-------2------|
D:---------------------------------------------------0--------|
A:-----------------1-1------1--0-----0-----0------------------|
E:-1---------1------------------------------------------------|

G:-------------------------------------------------------------|
D:------------------------------------------0-0--------0-------|
A:-----------------1-1------1-0-------0------------------------|
E:-1---------1-------------------------------------------------|

G:----------------------------------3-----2----2-------2------|
D:---------------------------------------------------0--------|
A:-----------------1-1------1--0-----0-----0------------------|
E:-1---------1------------------------------------------------|

G:--------------------------------------------------|
D:--------------------------------------------------|
A:-----8-8-----------------------------------5-5----|
E:-----------------6-6---------5-5------------------|
[ Tab from: http://www.guitartabs.cc/tabs/i/interpol/evil_btab_ver_3.html ]
G:--------------------------------------------------|
D:--------------------------------------------------|
A:-----8-8-----------------------------------5-5----|
E:-----------------6-6---------5-5------------------|


Chorus:
G:------------------------------------------------------------|
D:------------------------------------------------------------|
A:-88888888-55555555------------------------------------------|
E:------------------------------66666666-55555555-------------|

G:----------------------------------------|
D:----------------------------------------|
A:--------------------------55----77------|
E:-88888888---6666------------------------|


Verse #2:
G:------------------------------------------|
D:------------------------------------------|
A:---8-88----------------------5-5----------|
E:------------666-----5-55---------5--------|

G:-----------------------------------------------|
D:-----------------------------------------------|
A:---8-88------------------------55----77--------|
E:------------666-----5------5-------------------|

Prechorus

Chorus x2 	(At the end of these choruses, do this:
		A:-------------<8----------)
Rest


Verse #3
G:-----------------------------------------------------|
D:-----------------------------------------------------|
A:--55---77----8-88-------------------5-5--------------|
E:-----------------------666-----5-55---------5--------|

G:-----------------------------------------------|
D:-----------------------------------------------|
A:---8-88------------------------55----77--------|
E:------------666-----5------5-------------------|

G:------------------------------------------|
D:------------------------------------------|
A:---8-88----------------------5-5----------|
E:------------666-----5-55---------5--------|

G:------------------------------------------|
D:------------------------------------------|
A:---8-88----------------------5-5-5--------|
E:------------666-----5-55------------------|

Chorus until end.
Comments