Interpol - Evil Chords & Tabs

 

Evil Chords & Tabs

Interpol Chords & Tabs

Version: 2 Type: Bass Tab 0 ratings
1 star 2 stars 3 stars 4 stars 5 stars
comments

Evil Bass Tab

Verse
G|---------------------------------------|
D|---------------------------------------|
A|-------8-88------------555-------------|           x10
E|------------666---555------------------|

Pre-Courus
G|---------------------------------------|
D|---------------------------------------|            x3
A|-----------------55--------------------|
E|-1--------66--5------------------------|


G|---------------------------------------|
D|---------------------------------------|
A|-----------------5555555---------------|
E|-1--------66--5------------------------|

[ Tab from: http://www.guitartabs.cc/tabs/i/interpol/evil_btab_ver_2.html ]
G|---------------------------------------|
D|---------------------------------------|
A|-----88----------55---88----------55---|
E|---------66--55-----------66--55-------|

Courus
G|---------------------------------------|
D|---------------------------------------|      do this once the first courus
A|--88888888-55555555--------------------|      then twice second and three 
E|--------------------55555555-66666666--|      times third. 


G|---------------------------------------|
D|---------------------------------------|
A|-----------------55--44----------------|
E|-88888888--6666------------------------|

thats all you need to know, well when i say that i mean thats all i got but play
along to the song then you'll understandwhat i mean,
Tell me what you think on my first tab: eirecoffey@hotmail.com
Happy playing
Comments