Interpol - A Time To Be So Small Chords & Tabs

 

A Time To Be So Small Chords & Tabs

Interpol Chords & Tabs

Version: 1 Type: Bass Tab 0 ratings
1 star 2 stars 3 stars 4 stars 5 stars
comments

A Time To Be So Small Bass Tab

   
G|---7---------------------7--------------------------------------------|
D|-----------------7-7-7-7---7-7-7-----------------7-7-7-7-7-7-7--------|
A|-5---5-5-5-5-5-5-----------------5-5-5-5-5-5-5-5----------------------|
D|----------------------------------------------------------------------|

G|----------------------------------------------------------------------|
D|-------------------7-7-7-7-7-7-7-7-----------------7-7-7-7-7-7-7------|
A|-3/5-5-5-5-5-5-5-5-----------------5-5-5-5-5-5-5-5--------------------|
D|----------------------------------------------------------------------|

G|----------------------------------------------------------------------|
D|----------------------------------------------------------------------|
A|-3/5-5-5-5-5-5-5-5-5-5-5-55-77-778-88-88--1-1-0-5-55-55-77-778-88-88--|
D|----------------------------------------------------------------------|

G|-----------------------7-----7------------------------------------------|
D|-------------------------------------7-7-7-7-7-7-7-7--------------------|
A|-1-1-0-5-55-55-77-77-5---5-5---5-5-5-----------------5-5-5-5-5-5-5-5----|
D|------------------------------------------------------------------------|

G|----------------------------------------------------------------------|
D|-7-7-7-7-7-7-7----------------------7-7-7-7-7-7-7-7-------------------|
A|---------------33/5-5-5-5-5-5-5-5-5-----------------5-5-5-5-5-5-5-7---|
D|----------------------------------------------------------------------|

G|----------------------------------------------------------------------|
D|-7-7-7-7-7-7-7--------------------------------------------------------|
A|---------------33/5-5-5-5-5-5-5-5-5-5-5-555-777-778-888-888-1-1-0-----|
D|----------------------------------------------------------------------|

G|----------------------------------------------------------------------|
D|----------------------------------------------------------------------|
A|-5-555-555-777-778-888-888-111-0-5-555-555----008-888-888-1-1-0-5-555-|
D|-------------------------------------------00-------------------------|

G|--------------------------------------------||
D|--------------------------------------------||
A|-555-777-778-888-888-1-1-0-5-555-555--------||
D|-------------------------------------00-00--||

G|----------------------------------------------------------------------|
D|----------------------------------------------------------------------|
A|-5-5-5-5-5-5-5-5-3-3-3-3-3-3-3-3-0-0-0-0-1-1-1-1-3-3-3-3-4-4-4-4------|
D|----------------------------------------------------------------------|

G|----------------------------------------------------------------------|
D|----------------------------------------------------------------------|
A|-5-5-5-5-5-5-5-5-3-3-3-3-3-3-3-3-0-0-0-0-1-1-1-1-3-3-3-3-4-4-4-4------|
D|----------------------------------------------------------------------|
[ Tab from: http://www.guitartabs.cc/tabs/i/interpol/a_time_to_be_so_small_btab.html ]
G|----------------------------------------------------------------------|
D|-----------------7-7-7-7-7-7-7-7-----------------7-7-7-7-7-7-7--------|
A|-5-5-5-5-5-5-5-5-----------------5-5-5-5-5-5-5-5----------------------|
D|----------------------------------------------------------------------|

G|----------------------------------------------------------------------|
D|--------------------7-7-7-7-7-7-7-7-----------------7-7-7-7-7-7-7-----|
A|-33/5-5-5-5-5-5-5-5-----------------5-5-5-5-5-5-5-5-------------------|
D|----------------------------------------------------------------------|

G|----------------------------------------------------------------------|
D|----------------------------------------------------------------------|
A|-33/5-5-5-5-5-5-5-5-5-5-5-555-777-778-888-888-1-1-0-5-555-555-777-778-|
D|----------------------------------------------------------------------|

G|----------------------------------------------------------------------|
D|----------------------------------------------------------------------|
A|-888-888-1-1-0-5-555-555------8-888-888-1-1-0-5-555-555-777-778-888---|
D|-------------------------00-00----------------------------------------|

G|---------------------7-5-------------3-3-2----------------------------|
D|-------------------------7--------------------------------------------|
A|-888-1-1-0-5-555-555-------8-888-888-------5-555-555-777-778-888-888--|
D|----------------------------------------------------------------------|

G|----------------------------------------------------------------------|
D|----------------------------------------------------------------------|
A|-1-1-0-5-555-555------8-888-888-1-1-0-5-555-555-777-778-888-888-1-1-0-|
D|-----------------00-00------------------------------------------------|

G|------------------------------------------------------||
D|-----------------3-3-------------2---3-3-3------------||
A|-5-555-555-5----------1-1--5-5-------------1-1--5-5---||
D|-------------0-0--------------------------------------||

G|------------------------------------------7-------|
D|-3-3-------------2---3-3-3------------------8-----|
A|------1-1--5-5-------------1-1--5-5-----------5---|
D|--------------------------------------------------|

G|----------------------------------|
D|----------------------------------| D=12
A|----------------------------------|
D|-3-3-3-3/8-8-8-8/D-D-D-D-D-D-D-D--| X3

G|----------------------------------|
D|----------------------------------|
A|----------------------------------|
D|-3-3-3-3/8-8-8-8/D-D-D-D-0-0-0-0--|

G|-----------3~-------------------------------------|
D|-3~-----------------------------7-8~--------7-7-7-|
A|------5~---------0~-------7-5~--------------------|
D|----------------------3~---------------7~---------|

G|--------------------------------------------------------------------|
D|-7-7-7-7-8-8-8-8-7-7-7-7-5-5-8-8-7-7-7-7-8-8-8-8-7-7-7-7-5-5-3-3----|
A|--------------------------------------------------------------------|
D|--------------------------------------------------------------------| X2

End on High D|7 and let ring
thanx, hope you enjoy it and please rate it
Comments