International Noise Conspiracy - Capitalism Stole My Virginity Chords & Tabs

 

Capitalism Stole My Virginity Chords & Tabs

International Noise Conspiracy Chords & Tabs

Version: 2 Type: Tab 0 ratings
1 star 2 stars 3 stars 4 stars 5 stars
comments

Capitalism Stole My Virginity Tab

   
------------------------------------------------------------------------

The International Noise Conspiracy - Capitalism stole my Virginity

CHORDS:   A    F    D       A2
	|-----------------------------|
	|-----------------------------|
	|-14---10---7----------14-----|
	|-14---10---7-----7----14-----|
	|-12----8---5-----7-or-12-----|
	|-----------------5-----------|


         A                   D
RIFF A    |---------------------------|
    |----5---5-----------8------------|
    |-----------7---4/5---------------|
    |-7-------------------------------|
    |---------------------------------|
    |---------------------------------|

         A                   C
RIFF A2    |-------------------------------------------------|
    |----5---5-----------8--10-10-10-10-10-10-10-------------|
    |-----------7---4/5--------------------------------------|
    |-7------------------------------------------------------|
    |--------------------------------------------------------|
    |--------------------------------------------------------|

         A                    A               A        A
SOLO    |-------------------------------------12-------7------|
    |---------------------------------------------------------|
    |---------5-5-4-5----5-7-5-7---9--------------------------|
    |-7-5-7------------5---------7----------------------------|
    |-------7-------------------------------------------------|
    |---------------------------------------------------------|

A                                        A
Nowhere is untouched by shame, who said we could get by with our childhood games
A                                    A
Days of innocence are all long gone avoid the shock honey and try to live on

[RIFF A]

A                                A
Woke up all paralysed all dreams corrupted in front of our eyes
        A                                     A
on every forehead of every little whore there is a sign that says:
Baby dont come back no more

[ Tab from: http://www.guitartabs.cc/tabs/i/international_noise_conspiracy/capitalism_stole_my_virginity_tab_ver_2.html ]
F           D
Distasteful ugly and cheap
A2
That is how you make me feel i say
F          D       A2
Capitalism stole my virginity
F          D
Capitalism stole
F          D
Capitalism stole
F          D       A2
Capitalism stole my virginity

A						A
Robbed out of our bleeding hearts smashed our illusions tore them all apart
A						A
But now we are unsentimental and unafraid to destroy this culture that we hate

[RIFF A]

A  				A
so Tired of being nothing when we should be everything
A							A
And on every forehead of every little whore there is a sign that says:
Baby we are all born to die


F           A
Distasteful ugly and cheap yah
A2
That is how you make me feel i said
F          D         A2
Capitalism stole my virginity
F          D
Capitalism stole
F          D
Capitalism stole
F          D
Capitalism stole .. YEAH

[SOLO]


[RIFF A]
We are all sluts, cheap products in someone else's notebook
[RIFF A]
We are all sluts, cheap products in someone else's notebook
[RIFF A]
We are all sluts, cheap products in someone else's notebook
[RIFF B]
We are all sluts, cheap products in someone else's notebook


F           D
Distasteful ugly and cheap  yeah
A2
That is how you make me feel i said
F          D        A2
Capitalism stole my virginity
F          D
Capitalism stole
F          D
Capitalism stole
F          D        A2
Capitalism stole my vir-gi-ni-ty oh oh
F          D
Capitalism stole
F          D
Capitalism stole
F          D        A2
Capitalism stole my vir-gi-ni-ty oh yeah
F          D
Capitalism stole
F          D
Capitalism stole
F          D        A2
Capitalism stole my vir-gi-ni-ty oh oh

------------------------------------------------------------------------
for corrections, comments or requests contact me
--benny
[der.schoenste.tag@gmx.net]
Comments