Insyderz - This I Know Chords & Tabs

 

This I Know Chords & Tabs

Insyderz Chords & Tabs

Version: 2 Type: Bass Tab 0 ratings
1 star 2 stars 3 stars 4 stars 5 stars
comments

This I Know Bass Tab

this i know 
the insyderz
motor city ska
tabbed by jared gardner     punkrawkfreak@hotmail.com

i haven't finished the whole song yet, this is just the intro . . .
if anybody can figure out the rest of it, that would be a big
help . . . if not, i'll just post the rest of it when i get time
[ Tab from: http://www.guitartabs.cc/tabs/i/insyderz/this_i_know_btab_ver_2.html ]
G|----0-2--0--7--5--3--5-----0-2--0-------------
D|-3----------------------3-------------0--2--3-
A|-----------------------------------3----------
E|----------------------------------------------

G|----0-2--0--7--5--3--5-----0-2--0----|
D|-3----------------------3------------|
A|-------------------------------------|
E|-------------------------------------|

there it is, e-me with the rest of it if you can, thanx
Comments