Insyderz - Compadre Chords & Tabs

 

Compadre Chords & Tabs

Insyderz Chords & Tabs

Version: 1 Type: Bass Tab 0 ratings
1 star 2 stars 3 stars 4 stars 5 stars
comments

Compadre Bass Tab

Compadre
The Insyderz
Motor City Ska
Copyright 1997 Gumshoe Records
Originally Tabbed by: Jon Bukiewicz (JBuckWitts@aol.com)
Updated by: David Kruger (davidspam@hotmail.com)
____________________________________________________________________
Play this part before the tempo change: 

G|---0-3--------------0-3--------------------------------0-3-----|
D|-1---------0-3----1------------------0-3------0-3----1---------|
A|---------1------------------3-6----1--------1------------------|
E|--------------------------4------------------------------------|

After the tempo change play:
(These are really fast eighth notes)
[ Tab from: http://www.guitartabs.cc/tabs/i/insyderz/compadre_btab.html ]
G|---0-3-0-----------0-3-0-----------------3-1-0-----0-3-0-----|
D|-1---------0-3-0-1-----------------0-3-0-------3-1-----------| (2x)
A|---------1------------------3-6-3-1----------------------1---|
E|--------------------------4----------------------------------|

However, after the first time, you only play the above part when only
the drums, bass, and guitar are playing. When the whole band is playing,
play roots:

G|---------------------------------------------|
D|--1------------1--------------------------1--|	(2x)
A|---------1-----------------1------1----------|	
E|---------------------4-----------------------|

Comments