Insyderz - Carnival Chords & Tabs

 

Carnival Chords & Tabs

Insyderz Chords & Tabs

Version: 1 Type: Bass Tab 0 ratings
1 star 2 stars 3 stars 4 stars 5 stars
comments

Carnival Bass Tab

"Carnival"
Artist: The Insyderz
Album: Motor City Ska
(c) 1997 Gumshoe Records
Toonman (bass4jesus@aol.com)

(Don't play for first part of intro)

Intro Part 1:                                                  (4x)
G---------0-0-2-2-------------------------0-0-2-2-------------0-0-|
D-2-2-4-4---------0-0-2-2-----0-0-2-2-4-4---------0-0-2-2-4-4-----|
A-------------------------3-3-------------------------------------|

Intro Part 2:                  (4x)
D---------0-0-2-2-----------------|
A-2-2-4-4---------0-0-0-2-----0---|
[ Tab from: http://www.guitartabs.cc/tabs/i/insyderz/carnival_btab.html ]
Verse:           (4x)                              (4x)
D-------------------|-2---2---2---2---5-5-5---0---0---|
A-------------------|-----------------------2---2---2-|
E-12\---------------|---------------------------------|

(Repeat Intro Part 2)
(Repeat Verse)

               (8x)
A-2---1---0-------|
E-------------3---|

(Repeat Verse)
               (8x)
A-2---1---0-------| (Rest for a few measures) |-7-------10------5-------3-------|
E-------------3---|                           |---------------------------------|

(Repeat Intro Part 1, play 2x this time)
(Repeat Intro Part 2)

Comments