Institute - Save The Robots Chords & Tabs

 

Save The Robots Chords & Tabs

Institute Chords & Tabs

Version: 1 Type: Tab 0 ratings
1 star 2 stars 3 stars 4 stars 5 stars
comments

Save The Robots Tab

Save the Robots:
Submitted by: Goldensuitcase

Intro: Bassline

------------------------------------------------------------------|
------------------------------------------------------------------|
------------------------------------------------------------------|
------------------------------------------------------------------|
------------------------------------------------------------------|
-4-4-4-4-4-4-4-4-4-4-4-4-4-4-4-4-0-0-0-0-0-0-0-0-0-0-0-0-0-0-0-0--|
Repeat 1X

Gavins part:

-----------------------------------------|
-----------------------------------------|
-----------------------------------------|
-----------------------------------------|
-4-2-2--7-5-7-5-7--4-2-4-2-4--7-5-7-5-7--|
-0-0-0--0-0-0-0-0--0-0-0-0-0--0-0-0-0-0--|

Verse:

------------------------------------------------------------------|
------------------------------------------------------------------|
------------------------------------------------------------------|
------------------------------------------------------------------|
------------------------------------------------------------------|
-4-4-4-4-4-4-4-4-4-4-4-4-4-4-4-4-4-0-0-0-0-0-0-0-0-0-0-0-0-0-0-0--|
"Save the robots"

------------------------------------------------------------------|
------------------------------------------------------------------|
------------------------------------------------------------------|
------------------------------------------------------------------|
------------------------------------------------------------------|
-5-5-5-5-5-5-5-5-5-5-5-5-5-5-5-5-5-0-0-0-0-0-0-0-0-0-0-0-0-0-0-0--|
"Save your friends"

------------------------------------------------------------------|
------------------------------------------------------------------|
------------------------------------------------------------------|
------------------------------------------------------------------|
------------------------------------------------------------------|
-9-9-9-9-9-9-9-9-9-9-9-9-9-9-9-9-7-7-7-7-7-7-7-7-7-7-7-7-7-7-7-7--|
"I didn't mean to collide with you"
-------------------------------------------------------------------------------------|
-------------------------------------------------------------------------------------|
-------------------------------------------------------------------------------------|
-------------------------------------------------------------------------------------|
-------------------------------------------------------------------------------------|
-5-5-5-5-5-5-5-5-5-5-5-5-5-5-5-5-0-0-0-0-0-0-0-0-0-0-0-0-0-0-0-0---------------------|
"Fell so far from Earth"

Chris's part: The "0" can be played as a 4 on the G string if desired.
[ Tab from: http://www.guitartabs.cc/tabs/i/institute/save_the_robots_tab.html ]
-------------------------------------------------------------|
-0-7-0-7-0-7-0-8-7--0--0-7-0-7-0-7-0-8-7-0-7-0-7-0-7-0-8-10--|
-------------------------------------------------------------|
-------------------------------------------------------------|
-------------------------------------------------------------|
-------------------------------------------------------------|


Chorus:

----------------------------|
----------------------------|
----------------------------|
-9------7------2------5-----|
-9------7------2------5-----|
-9------7------2------5-----|

Bridge:

--------------------------------|
--------------------------------|
--------------------------------|
-9-----7-----5---12---12--------|
-9-----7-----5---12---12--------|
-9-----7-----5---12---12--------|
"So don't you try me...."

Solo:

------------------------------------------------------------------------------------------------|
------12-10-----------12-10-----12-10--------------------------------12-10-------12-10---12-10--|
-11-----------11-11----------11-----------11-11-9-11-9H11--11-------11-11-------11-------11-11--|
------------------------------------------------------------------------------------------------|
------------------------------------------------------------------------------------------------|
------------------------------------------------------------------------------------------------|

Chorus before outro: extended

-------------------------------------------|
-------------------------------------------|
-------------------------------------------|
-9-----7-----2-----5-----2-----5-----------|
-9-----7-----2-----5-----2-----5-----------|
-9-----7-----2-----5-----2-----5-----------|
"No mantra...no mantra...."

Outro: Hold the D and occassionally Gavin will hit the 12th fret on the "B" string" 
ending the "d" chord.

----------------------------------------------------------|
------------------------------12--------------------------|
----------------------------------------------------------|
-0-0-0-0-0-0-0-0-0-0-----4-4-4-5-5-4H5--------------------|
-0-0-0-0-0-0-0-0-0-0-----4-4-4-5-5-4H5--------------------|
-0-0-0-0-0-0-0-0-0-0-----4-4-4-5-5-4H5--------------------|

Ending:

-------------------------------------------------------------------------------|
-------------------------------------------------------------------------------|
-------------------------------------------------------------------------------|
-0-0-0-0-0-0-0-0-0-0--4-4-4-5-5-4-5--0-4-4-4-5-5-4-5--0-4-4-4-5-5-4-5----------|
-0-0-0-0-0-0-0-0-0-0--4-4-4-5-5-4-5--0-4-4-4-5-5-4-5--0-4-4-4-5-5-4-5----------|
-0-0-0-0-0-0-0-0-0-0--4-4-4-5-5-4-5--0-4-4-4-5-5-4-5--0-4-4-4-5-5-4-5----------|
Comments