Institute - Heat Of Your Love Chords & Tabs

 

Heat Of Your Love Chords & Tabs

Institute Chords & Tabs

Version: 1 Type: Tab 0 ratings
1 star 2 stars 3 stars 4 stars 5 stars
comments

Heat Of Your Love Tab

   
-------------------------------------------------------------------------------
	            The Heat of Your Love - Institute
-------------------------------------------------------------------------------
Tabbed by: Goldensuitcase
Email: no-no

Tuning: 1/2 step down, Dropped D

Intro:

e|---------------------------------------------------------------------------|
B|---------------------------------------------------------------------------|
G|---------------------------------------------------------------------------|
D|-0-0-5-0-7-0-0-5-0-7-0-12-0-0-10^--0-0-5-0-7-0-0-5-0-7-0-12-0-0-10^--------|
A|---------------------------------------------------------------------------|
E|---------------------------------------------------------------------------|

e|---------------------------------------------------------------------------|
B|--------------10^10^...--------------10^10^...-----------------------------|
G|---------------------------------------------------------------------------|
D|-5--5--5--7--------------5--5--5--7----------------------------------------|
A|-5--5--5--7--------------5--5--5--7----------------------------------------|
E|-5--5--5--7--------------5--5--5--7----------------------------------------|

Verse:
e|---------------------------------------------------------------------------|
B|---------------------------------------------------------------------------|
G|---------------------------------------------------------------------------|
D|-5--5--5--7---5--5--5--7---8--8--10----------------------------------------|
A|-5--5--5--7---5--5--5--7---8--8--10----------------------------------------|
E|-5--5--5--7---5--5--5--7---8--8--10----------------------------------------|
Repeat 5 times then end with the following before chorus
[ Tab from: http://www.guitartabs.cc/tabs/i/institute/heat_of_your_love_tab.html ]
e|---------------------------------------------------------------------------|
B|---------------------------------------------------------------------------|
G|---------------------------------------------------------------------------|
D|-5--5--5--7---5--5--5--7---------------------------------------------------|
A|-5--5--5--7---5--5--5--7---------------------------------------------------|
E|-5--5--5--7---5--5--5--7---------------------------------------------------|

Chorus:
e|---------------------------------------------------------------------------|
B|---------------------------------------------------------------------------|
G|-9-9-9-9-9-9-9-9-9-9-9-9-9-9-9-9--5-5-5-5-5-5-5-5-5-5-5-5-5-5-5-5----------|
D|-7-7-7-7-7-7-7-7-7-7-7-7-7-7-7-7--3-3-3-3-3-3-3-3-3-3-3-3-3-3-3-3----------|
A|-7-7-7-7-7-7-7-7-7-7-7-7-7-7-7-7--3-3-3-3-3-3-3-3-3-3-3-3-3-3-3-3----------|
E|-7-7-7-7-7-7-7-7-7-7-7-7-7-7-7-7--3-3-3-3-3-3-3-3-3-3-3-3-3-3-3-3----------|
Repeat 1X for first chorus
Repeat 2X for second chorus

Bridge:
e|--------------------------------------------------------------------------------------|
B|--------------------------------------------------------------------------------------|
G|--------------------------------------------------------------------------------------|
D|-9-9-9-9-9-9-9-9-9-9-9-9-9-12-12-12--10-10-10-10-10-10-10-10-10-10-10-10-10-12-12-12--|
A|-9-9-9-9-9-9-9-9-9-9-9-9-9-12-12-12--10-10-10-10-10-10-10-10-10-10-10-10-10-12-12-12--|
E|-9-9-9-9-9-9-9-9-9-9-9-9-9-12-12-12--10-10-10-10-10-10-10-10-10-10-10-10-10-12-12-12--|
Repeat 3X

Solo during bridge:
e|-13/14---------------13/14---------------------------15H17-----------15H17^--|
B|-------15------------------15------------15-17-15-17------15-17-15-17--------|
G|----------12H14---------------12H14------------------------------------------|
D|----------------12H14--------------12H14-------------------------------------|
A|-----------------------------------------------------------------------------|
E|-----------------------------------------------------------------------------|


| /  slide up
| \  slide down
| h  hammer-on
| p  pull-off
| ~  vibrato
| +  harmonic
| x  Mute note
===============================================================================
Comments